  0
SECTION
  2
HEADER
  9
$ACADVER
  1
AC1015
  9
$ACADMAINTVER
 70
     6
  9
$DWGCODEPAGE
  3
ANSI_1254
  9
$INSBASE
 10
0.0
 20
0.0
 30
0.0
  9
$EXTMIN
 10
0.0
 20
0.0
 30
0.0
  9
$EXTMAX
 10
279.4
 20
215.9
 30
0.0
  9
$LIMMIN
 10
0.0
 20
0.0
  9
$LIMMAX
 10
279.4
 20
215.9
  9
$ORTHOMODE
 70
     0
  9
$REGENMODE
 70
     1
  9
$FILLMODE
 70
     1
  9
$QTEXTMODE
 70
     0
  9
$MIRRTEXT
 70
     1
  9
$LTSCALE
 40
1.0
  9
$ATTMODE
 70
     1
  9
$TEXTSIZE
 40
3.5
  9
$TRACEWID
 40
1.0
  9
$TEXTSTYLE
  7
Standard
  9
$CLAYER
  8
0
  9
$CELTYPE
  6
ByLayer
  9
$CECOLOR
 62
   256
  9
$CELTSCALE
 40
1.0
  9
$DISPSILH
 70
     0
  9
$DIMSCALE
 40
1.0
  9
$DIMASZ
 40
3.5
  9
$DIMEXO
 40
1.0
  9
$DIMDLI
 40
3.75
  9
$DIMRND
 40
0.0
  9
$DIMDLE
 40
0.0
  9
$DIMEXE
 40
1.0
  9
$DIMTP
 40
0.0
  9
$DIMTM
 40
0.0
  9
$DIMTXT
 40
3.5
  9
$DIMCEN
 40
2.5
  9
$DIMTSZ
 40
0.0
  9
$DIMTOL
 70
     0
  9
$DIMLIM
 70
     0
  9
$DIMTIH
 70
     1
  9
$DIMTOH
 70
     1
  9
$DIMSE1
 70
     0
  9
$DIMSE2
 70
     0
  9
$DIMTAD
 70
     1
  9
$DIMZIN
 70
     0
  9
$DIMBLK
  1

  9
$DIMASO
 70
     1
  9
$DIMSHO
 70
     1
  9
$DIMPOST
  1

  9
$DIMAPOST
  1

  9
$DIMALT
 70
     0
  9
$DIMALTD
 70
     3
  9
$DIMALTF
 40
0.0393700787
  9
$DIMLFAC
 40
1.0
  9
$DIMTOFL
 70
     1
  9
$DIMTVP
 40
0.0
  9
$DIMTIX
 70
     0
  9
$DIMSOXD
 70
     0
  9
$DIMSAH
 70
     0
  9
$DIMBLK1
  1

  9
$DIMBLK2
  1

  9
$DIMSTYLE
  2
ISO-25
  9
$DIMCLRD
 70
     0
  9
$DIMCLRE
 70
     0
  9
$DIMCLRT
 70
     0
  9
$DIMTFAC
 40
1.0
  9
$DIMGAP
 40
1.524
  9
$DIMJUST
 70
     0
  9
$DIMSD1
 70
     0
  9
$DIMSD2
 70
     0
  9
$DIMTOLJ
 70
     0
  9
$DIMTZIN
 70
     0
  9
$DIMALTZ
 70
     0
  9
$DIMALTTZ
 70
     0
  9
$DIMUPT
 70
     0
  9
$DIMDEC
 70
     2
  9
$DIMTDEC
 70
     2
  9
$DIMALTU
 70
     2
  9
$DIMALTTD
 70
     3
  9
$DIMTXSTY
  7
Standard
  9
$DIMAUNIT
 70
     0
  9
$DIMADEC
 70
     2
  9
$DIMALTRND
 40
0.0
  9
$DIMAZIN
 70
     0
  9
$DIMDSEP
 70
    44
  9
$DIMATFIT
 70
     3
  9
$DIMFRAC
 70
     0
  9
$DIMLDRBLK
  1

  9
$DIMLUNIT
 70
     2
  9
$DIMLWD
 70
    -2
  9
$DIMLWE
 70
    -2
  9
$DIMTMOVE
 70
     0
  9
$LUNITS
 70
     2
  9
$LUPREC
 70
     2
  9
$SKETCHINC
 40
1.0
  9
$FILLETRAD
 40
10.0
  9
$AUNITS
 70
     0
  9
$AUPREC
 70
     2
  9
$MENU
  1
.
  9
$ELEVATION
 40
0.0
  9
$PELEVATION
 40
0.0
  9
$THICKNESS
 40
0.0
  9
$LIMCHECK
 70
     0
  9
$CHAMFERA
 40
0.0
  9
$CHAMFERB
 40
0.0
  9
$CHAMFERC
 40
0.0
  9
$CHAMFERD
 40
0.0
  9
$SKPOLY
 70
     0
  9
$TDCREATE
 40
2459741.592490637
  9
$TDUCREATE
 40
2459741.467490637
  9
$TDUPDATE
 40
2459741.592492593
  9
$TDUUPDATE
 40
2459741.467492593
  9
$TDINDWG
 40
0.0000000116
  9
$TDUSRTIMER
 40
0.0000000116
  9
$USRTIMER
 70
     1
  9
$ANGBASE
 50
0.0
  9
$ANGDIR
 70
     0
  9
$PDMODE
 70
     0
  9
$PDSIZE
 40
-1.0
  9
$PLINEWID
 40
0.0
  9
$SPLFRAME
 70
     0
  9
$SPLINETYPE
 70
     6
  9
$SPLINESEGS
 70
     8
  9
$HANDSEED
  5
164
  9
$SURFTAB1
 70
     6
  9
$SURFTAB2
 70
     6
  9
$SURFTYPE
 70
     6
  9
$SURFU
 70
     6
  9
$SURFV
 70
     6
  9
$UCSBASE
  2

  9
$UCSNAME
  2

  9
$UCSORG
 10
0.0
 20
0.0
 30
0.0
  9
$UCSXDIR
 10
1.0
 20
0.0
 30
0.0
  9
$UCSYDIR
 10
0.0
 20
1.0
 30
0.0
  9
$UCSORTHOREF
  2

  9
$UCSORTHOVIEW
 70
     0
  9
$UCSORGTOP
 10
0.0
 20
0.0
 30
0.0
  9
$UCSORGBOTTOM
 10
0.0
 20
0.0
 30
0.0
  9
$UCSORGLEFT
 10
0.0
 20
0.0
 30
0.0
  9
$UCSORGRIGHT
 10
0.0
 20
0.0
 30
0.0
  9
$UCSORGFRONT
 10
0.0
 20
0.0
 30
0.0
  9
$UCSORGBACK
 10
0.0
 20
0.0
 30
0.0
  9
$PUCSBASE
  2

  9
$PUCSNAME
  2

  9
$PUCSORG
 10
0.0
 20
0.0
 30
0.0
  9
$PUCSXDIR
 10
1.0
 20
0.0
 30
0.0
  9
$PUCSYDIR
 10
0.0
 20
1.0
 30
0.0
  9
$PUCSORTHOREF
  2

  9
$PUCSORTHOVIEW
 70
     0
  9
$PUCSORGTOP
 10
0.0
 20
0.0
 30
0.0
  9
$PUCSORGBOTTOM
 10
0.0
 20
0.0
 30
0.0
  9
$PUCSORGLEFT
 10
0.0
 20
0.0
 30
0.0
  9
$PUCSORGRIGHT
 10
0.0
 20
0.0
 30
0.0
  9
$PUCSORGFRONT
 10
0.0
 20
0.0
 30
0.0
  9
$PUCSORGBACK
 10
0.0
 20
0.0
 30
0.0
  9
$USERI1
 70
     0
  9
$USERI2
 70
     0
  9
$USERI3
 70
     0
  9
$USERI4
 70
     0
  9
$USERI5
 70
     0
  9
$USERR1
 40
0.0
  9
$USERR2
 40
0.0
  9
$USERR3
 40
0.0
  9
$USERR4
 40
0.0
  9
$USERR5
 40
0.0
  9
$WORLDVIEW
 70
     1
  9
$SHADEDGE
 70
     3
  9
$SHADEDIF
 70
    70
  9
$TILEMODE
 70
     1
  9
$MAXACTVP
 70
    64
  9
$PINSBASE
 10
0.0
 20
0.0
 30
0.0
  9
$PLIMCHECK
 70
     0
  9
$PEXTMIN
 10
1.0000000000E+20
 20
1.0000000000E+20
 30
1.0000000000E+20
  9
$PEXTMAX
 10
-1.0000000000E+20
 20
-1.0000000000E+20
 30
-1.0000000000E+20
  9
$PLIMMIN
 10
0.0
 20
0.0
  9
$PLIMMAX
 10
420.0
 20
297.0
  9
$UNITMODE
 70
     0
  9
$VISRETAIN
 70
     1
  9
$PLINEGEN
 70
     0
  9
$PSLTSCALE
 70
     1
  9
$TREEDEPTH
 70
  3020
  9
$CMLSTYLE
  2
Standard
  9
$CMLJUST
 70
     0
  9
$CMLSCALE
 40
20.0
  9
$PROXYGRAPHICS
 70
     1
  9
$MEASUREMENT
 70
     1
  9
$CELWEIGHT
370
    -1
  9
$ENDCAPS
280
     0
  9
$JOINSTYLE
280
     0
  9
$LWDISPLAY
290
     1
  9
$INSUNITS
 70
     4
  9
$HYPERLINKBASE
  1

  9
$STYLESHEET
  1

  9
$XEDIT
290
     1
  9
$CEPSNTYPE
380
     0
  9
$PSTYLEMODE
290
     1
  9
$FINGERPRINTGUID
  2
{f8a3d931-e214-43db-bdcb-bfad333c062d}
  9
$VERSIONGUID
  2
{FAEB1C32-E019-11D5-929B-00C0DF256EC4}
  9
$EXTNAMES
290
     1
  9
$PSVPSCALE
 40
0.0
  9
$OLESTARTUP
290
     0
  0
ENDSEC
  0
SECTION
  2
CLASSES
  0
CLASS
  1
ACDBDICTIONARYWDFLT
  2
AcDbDictionaryWithDefault
  3
ObjectDBX Classes
 90
        0
280
     0
281
     0
  0
CLASS
  1
VISUALSTYLE
  2
AcDbVisualStyle
  3
ObjectDBX Classes
 90
     4095
280
     0
281
     0
  0
CLASS
  1
MATERIAL
  2
AcDbMaterial
  3
ObjectDBX Classes
 90
     1153
280
     0
281
     0
  0
CLASS
  1
SCALE
  2
AcDbScale
  3
ObjectDBX Classes
 90
     1153
280
     0
281
     0
  0
CLASS
  1
TABLESTYLE
  2
AcDbTableStyle
  3
ObjectDBX Classes
 90
     4095
280
     0
281
     0
  0
CLASS
  1
MLEADERSTYLE
  2
AcDbMLeaderStyle
  3
ACDB_MLEADERSTYLE_CLASS
 90
     4095
280
     0
281
     0
  0
CLASS
  1
SUN
  2
AcDbSun
  3
SCENEOE
 90
     1153
280
     0
281
     0
  0
CLASS
  1
ACDBPLACEHOLDER
  2
AcDbPlaceHolder
  3
ObjectDBX Classes
 90
        0
280
     0
281
     0
  0
CLASS
  1
LAYOUT
  2
AcDbLayout
  3
ObjectDBX Classes
 90
        0
280
     0
281
     0
  0
ENDSEC
  0
SECTION
  2
TABLES
  0
TABLE
  2
VPORT
  5
8
330
0
100
AcDbSymbolTable
 70
     1
  0
VPORT
  5
29
330
8
100
AcDbSymbolTableRecord
100
AcDbViewportTableRecord
  2
*Active
 70
     0
 10
0.0
 20
0.0
 11
1.0
 21
1.0
 12
139.7
 22
107.95
 13
0.0
 23
0.0
 14
10.0
 24
10.0
 15
10.0
 25
10.0
 16
0.0
 26
0.0
 36
1.0
 17
0.0
 27
0.0
 37
0.0
 40
215.9
 41
1.2941176471
 42
50.0
 43
0.0
 44
0.0
 50
0.0
 51
0.0
 71
     0
 72
  2000
 73
     1
 74
     3
 75
     0
 76
     0
 77
     0
 78
     0
281
     0
 65
     1
110
0.0
120
0.0
130
0.0
111
1.0
121
0.0
131
0.0
112
0.0
122
1.0
132
0.0
 79
     0
146
0.0
  0
ENDTAB
  0
TABLE
  2
LTYPE
  5
5
330
0
100
AcDbSymbolTable
 70
     6
  0
LTYPE
  5
14
330
5
100
AcDbSymbolTableRecord
100
AcDbLinetypeTableRecord
  2
ByBlock
 70
     0
  3

 72
    65
 73
     0
 40
0.0
  0
LTYPE
  5
15
330
5
100
AcDbSymbolTableRecord
100
AcDbLinetypeTableRecord
  2
ByLayer
 70
     0
  3

 72
    65
 73
     0
 40
0.0
  0
LTYPE
  5
16
330
5
100
AcDbSymbolTableRecord
100
AcDbLinetypeTableRecord
  2
Continuous
 70
     0
  3
Solid line
 72
    65
 73
     0
 40
0.0
  0
LTYPE
  5
6E
330
5
100
AcDbSymbolTableRecord
100
AcDbLinetypeTableRecord
  2
HIDDEN
 70
     0
  3
Hidden __ __ __ __ __ __ __ __ __ __ __ __ __ __
 72
    65
 73
     2
 40
1.905
 49
1.27
 74
     0
 49
-0.635
 74
     0
  0
LTYPE
  5
6F
330
5
100
AcDbSymbolTableRecord
100
AcDbLinetypeTableRecord
  2
PHANTOM
 70
     0
  3
Phantom ______  __  __  ______  __  __  ______
 72
    65
 73
     6
 40
12.7
 49
6.35
 74
     0
 49
-1.27
 74
     0
 49
1.27
 74
     0
 49
-1.27
 74
     0
 49
1.27
 74
     0
 49
-1.27
 74
     0
  0
LTYPE
  5
70
330
5
100
AcDbSymbolTableRecord
100
AcDbLinetypeTableRecord
  2
CENTER
 70
     0
  3
Center ____ _ ____ _ ____ _ ____ _ ____ _ ____
 72
    65
 73
     4
 40
10.16
 49
6.35
 74
     0
 49
-1.27
 74
     0
 49
1.27
 74
     0
 49
-1.27
 74
     0
  0
LTYPE
  5
71
330
5
100
AcDbSymbolTableRecord
100
AcDbLinetypeTableRecord
  2
CENTERX2
 70
     0
  3
Center (2x) ________  __  ________  __  _____
 72
    65
 73
     4
 40
20.32
 49
12.7
 74
     0
 49
-2.54
 74
     0
 49
2.54
 74
     0
 49
-2.54
 74
     0
  0
LTYPE
  5
72
330
5
100
AcDbSymbolTableRecord
100
AcDbLinetypeTableRecord
  2
DOT2
 70
     0
  3
Dot (.5x) ........................................
 72
    65
 73
     2
 40
0.635
 49
0.0
 74
     0
 49
-0.635
 74
     0
  0
ENDTAB
  0
TABLE
  2
LAYER
  5
2
330
0
100
AcDbSymbolTable
 70
    17
  0
LAYER
  5
10
330
2
100
AcDbSymbolTableRecord
100
AcDbLayerTableRecord
  2
0
 70
     0
 62
     7
  6
Continuous
370
    -3
390
F
  0
LAYER
  5
73
330
2
100
AcDbSymbolTableRecord
100
AcDbLayerTableRecord
  2
FORMAT
 70
     0
 62
     7
  6
Continuous
370
    -3
390
F
  0
LAYER
  5
74
330
2
100
AcDbSymbolTableRecord
100
AcDbLayerTableRecord
  2
YARDIMCI_GEOMETRI
 70
     0
 62
    -6
  6
Continuous
290
     0
370
    -3
390
F
  0
LAYER
  5
75
330
2
100
AcDbSymbolTableRecord
100
AcDbLayerTableRecord
  2
SAYFA_CERCEVESI
 70
     0
 62
     7
  6
Continuous
370
    25
390
F
  0
LAYER
  5
76
330
2
100
AcDbSymbolTableRecord
100
AcDbLayerTableRecord
  2
ANTET
 70
     0
 62
     7
  6
Continuous
370
    -3
390
F
  0
LAYER
  5
77
330
2
100
AcDbSymbolTableRecord
100
AcDbLayerTableRecord
  2
OLCU
 70
     0
 62
   150
  6
Continuous
370
    -3
390
F
  0
LAYER
  5
78
330
2
100
AcDbSymbolTableRecord
100
AcDbLayerTableRecord
  2
METIN
 70
     0
 62
    96
  6
Continuous
370
    -3
390
F
  0
LAYER
  5
79
330
2
100
AcDbSymbolTableRecord
100
AcDbLayerTableRecord
  2
BALON
 70
     0
 62
     5
  6
Continuous
370
    -3
390
F
  0
LAYER
  5
7A
330
2
100
AcDbSymbolTableRecord
100
AcDbLayerTableRecord
  2
VURGU
 70
     0
 62
     7
  6
Continuous
370
    -3
390
F
  0
LAYER
  5
7B
330
2
100
AcDbSymbolTableRecord
100
AcDbLayerTableRecord
  2
SILIK
 70
     0
 62
     7
  6
Continuous
370
    -3
390
F
  0
LAYER
  5
7C
330
2
100
AcDbSymbolTableRecord
100
AcDbLayerTableRecord
  2
MODEL
 70
     0
 62
     7
  6
Continuous
370
    -3
390
F
  0
LAYER
  5
7D
330
2
100
AcDbSymbolTableRecord
100
AcDbLayerTableRecord
  2
DETAYLANDıRMA
 70
     0
 62
   190
  6
Continuous
370
    -3
390
F
  0
LAYER
  5
7E
330
2
100
AcDbSymbolTableRecord
100
AcDbLayerTableRecord
  2
TOLERANS
 70
     0
 62
   230
  6
Continuous
370
    -3
390
F
  0
LAYER
  5
7F
330
2
100
AcDbSymbolTableRecord
100
AcDbLayerTableRecord
  2
MERKEZ_CIZGILERI
 70
     0
 62
    30
  6
Continuous
370
    -3
390
F
  0
LAYER
  5
80
330
2
100
AcDbSymbolTableRecord
100
AcDbLayerTableRecord
  2
KESIT-DETAY_CIZGILERI
 70
     0
 62
     7
  6
Continuous
370
    -3
390
F
  0
LAYER
  5
81
330
2
100
AcDbSymbolTableRecord
100
AcDbLayerTableRecord
  2
\U+041E\U+0421\U+0415\U+0412\U+042B\U+0415
 70
     0
 62
     7
  6
Continuous
370
    -3
390
F
  0
LAYER
  5
82
330
2
100
AcDbSymbolTableRecord
100
AcDbLayerTableRecord
  2
\U+0412\U+041E\U+0414\U+042F\U+041D\U+042B\U+0415_\U+0417\U+041D\U+0410\U+041A\U+0418
 70
     0
 62
    11
  6
Continuous
370
    -3
390
F
  0
ENDTAB
  0
TABLE
  2
STYLE
  5
3
330
0
100
AcDbSymbolTable
 70
     1
  0
STYLE
  5
11
330
3
100
AcDbSymbolTableRecord
100
AcDbTextStyleTableRecord
  2
Standard
 70
     0
 40
0.0
 41
1.0
 50
0.0
 71
     0
 42
3.5
  3
txt
  4

  0
ENDTAB
  0
TABLE
  2
VIEW
  5
6
330
0
100
AcDbSymbolTable
 70
     0
  0
ENDTAB
  0
TABLE
  2
UCS
  5
7
330
0
100
AcDbSymbolTable
 70
     0
  0
ENDTAB
  0
TABLE
  2
APPID
  5
9
330
0
100
AcDbSymbolTable
 70
     1
  0
APPID
  5
12
330
9
100
AcDbSymbolTableRecord
100
AcDbRegAppTableRecord
  2
ACAD
 70
     0
  0
ENDTAB
  0
TABLE
  2
DIMSTYLE
  5
A
330
0
100
AcDbSymbolTable
 70
     1
100
AcDbDimStyleTable
  0
DIMSTYLE
105
27
330
A
100
AcDbSymbolTableRecord
100
AcDbDimStyleTableRecord
  2
ISO-25
 70
     0
 41
2.5
 42
0.625
 43
3.75
 44
1.25
 73
     0
 74
     0
 77
     1
 78
     8
140
2.5
141
2.5
143
0.0393700787
147
0.625
171
     3
172
     1
178
     0
271
     2
272
     2
274
     3
278
    44
283
     0
284
     8
340
11
  0
ENDTAB
  0
TABLE
  2
BLOCK_RECORD
  5
1
330
0
100
AcDbSymbolTable
 70
     9
  0
BLOCK_RECORD
  5
1F
330
1
100
AcDbSymbolTableRecord
100
AcDbBlockTableRecord
  2
*Model_Space
340
22
  0
BLOCK_RECORD
  5
1B
330
1
100
AcDbSymbolTableRecord
100
AcDbBlockTableRecord
  2
*Paper_Space
340
1E
  0
BLOCK_RECORD
  5
23
330
1
100
AcDbSymbolTableRecord
100
AcDbBlockTableRecord
  2
*Paper_Space0
340
26
  0
BLOCK_RECORD
  5
97
330
1
100
AcDbSymbolTableRecord
100
AcDbBlockTableRecord
  2
SW_CENTERMARKSYMBOL_0
340
0
102
{BLKREFS
331
A2
102
}
  0
BLOCK_RECORD
  5
A3
330
1
100
AcDbSymbolTableRecord
100
AcDbBlockTableRecord
  2
SW_CENTERMARKSYMBOL_1
340
0
102
{BLKREFS
331
AE
102
}
  0
BLOCK_RECORD
  5
AF
330
1
100
AcDbSymbolTableRecord
100
AcDbBlockTableRecord
  2
SW_CENTERMARKSYMBOL_2
340
0
102
{BLKREFS
331
BA
102
}
  0
BLOCK_RECORD
  5
BB
330
1
100
AcDbSymbolTableRecord
100
AcDbBlockTableRecord
  2
SW_CENTERMARKSYMBOL_3
340
0
102
{BLKREFS
331
C6
102
}
  0
BLOCK_RECORD
  5
C7
330
1
100
AcDbSymbolTableRecord
100
AcDbBlockTableRecord
  2
SW_CENTERMARKSYMBOL_4
340
0
102
{BLKREFS
331
D2
102
}
  0
BLOCK_RECORD
  5
D3
330
1
100
AcDbSymbolTableRecord
100
AcDbBlockTableRecord
  2
SW_CENTERMARKSYMBOL_5
340
0
102
{BLKREFS
331
DE
102
}
  0
BLOCK_RECORD
  5
DF
330
1
100
AcDbSymbolTableRecord
100
AcDbBlockTableRecord
  2
SW_CENTERMARKSYMBOL_6
340
0
102
{BLKREFS
331
EA
102
}
  0
BLOCK_RECORD
  5
EB
330
1
100
AcDbSymbolTableRecord
100
AcDbBlockTableRecord
  2
SW_CENTERMARKSYMBOL_7
340
0
102
{BLKREFS
331
F6
102
}
  0
ENDTAB
  0
ENDSEC
  0
SECTION
  2
BLOCKS
  0
BLOCK
  5
20
330
1F
100
AcDbEntity
  8
0
100
AcDbBlockBegin
  2
*Model_Space
 70
     0
 10
0.0
 20
0.0
 30
0.0
  3
*Model_Space
  1

  0
ENDBLK
  5
21
330
1F
100
AcDbEntity
  8
0
100
AcDbBlockEnd
  0
BLOCK
  5
1C
330
1B
100
AcDbEntity
 67
     1
  8
0
100
AcDbBlockBegin
  2
*Paper_Space
 70
     0
 10
0.0
 20
0.0
 30
0.0
  3
*Paper_Space
  1

  0
ENDBLK
  5
1D
330
1B
100
AcDbEntity
 67
     1
  8
0
100
AcDbBlockEnd
  0
BLOCK
  5
24
330
23
100
AcDbEntity
  8
0
100
AcDbBlockBegin
  2
*Paper_Space0
 70
     0
 10
0.0
 20
0.0
 30
0.0
  3
*Paper_Space0
  1

  0
ENDBLK
  5
25
330
23
100
AcDbEntity
  8
0
100
AcDbBlockEnd
  0
BLOCK
  5
98
330
97
100
AcDbEntity
  8
0
100
AcDbBlockBegin
  2
SW_CENTERMARKSYMBOL_0
 70
     0
 10
0.0
 20
0.0
 30
0.0
  3
SW_CENTERMARKSYMBOL_0
  1

  0
LINE
  5
9A
330
97
100
AcDbEntity
  8
FORMAT
 62
     0
100
AcDbLine
 10
0.0
 20
0.0
 30
0.0
 11
0.0
 21
2.5
 31
0.0
  0
LINE
  5
9B
330
97
100
AcDbEntity
  8
FORMAT
 62
     0
100
AcDbLine
 10
0.0
 20
0.0
 30
0.0
 11
-2.5
 21
0.0
 31
0.0
  0
LINE
  5
9C
330
97
100
AcDbEntity
  8
FORMAT
 62
     0
100
AcDbLine
 10
0.0
 20
0.0
 30
0.0
 11
0.0
 21
-2.5
 31
0.0
  0
LINE
  5
9D
330
97
100
AcDbEntity
  8
FORMAT
 62
     0
100
AcDbLine
 10
0.0
 20
0.0
 30
0.0
 11
2.5
 21
0.0
 31
0.0
  0
LINE
  5
9E
330
97
100
AcDbEntity
  8
FORMAT
 62
     0
100
AcDbLine
 10
0.0
 20
5.0
 30
0.0
 11
0.0
 21
145.0
 31
0.0
  0
LINE
  5
9F
330
97
100
AcDbEntity
  8
FORMAT
 62
     0
100
AcDbLine
 10
-5.0
 20
0.0
 30
0.0
 11
-145.0
 21
0.0
 31
0.0
  0
LINE
  5
A0
330
97
100
AcDbEntity
  8
FORMAT
 62
     0
100
AcDbLine
 10
0.0
 20
-5.0
 30
0.0
 11
0.0
 21
-145.0
 31
0.0
  0
LINE
  5
A1
330
97
100
AcDbEntity
  8
FORMAT
 62
     0
100
AcDbLine
 10
5.0
 20
0.0
 30
0.0
 11
145.0
 21
0.0
 31
0.0
  0
ENDBLK
  5
99
330
97
100
AcDbEntity
  8
0
100
AcDbBlockEnd
  0
BLOCK
  5
A4
330
A3
100
AcDbEntity
  8
0
100
AcDbBlockBegin
  2
SW_CENTERMARKSYMBOL_1
 70
     0
 10
0.0
 20
0.0
 30
0.0
  3
SW_CENTERMARKSYMBOL_1
  1

  0
LINE
  5
A6
330
A3
100
AcDbEntity
  8
FORMAT
 62
     0
100
AcDbLine
 10
0.0
 20
0.0
 30
0.0
 11
0.0
 21
2.5
 31
0.0
  0
LINE
  5
A7
330
A3
100
AcDbEntity
  8
FORMAT
 62
     0
100
AcDbLine
 10
0.0
 20
0.0
 30
0.0
 11
-2.5
 21
0.0
 31
0.0
  0
LINE
  5
A8
330
A3
100
AcDbEntity
  8
FORMAT
 62
     0
100
AcDbLine
 10
0.0
 20
0.0
 30
0.0
 11
0.0
 21
-2.5
 31
0.0
  0
LINE
  5
A9
330
A3
100
AcDbEntity
  8
FORMAT
 62
     0
100
AcDbLine
 10
0.0
 20
0.0
 30
0.0
 11
2.5
 21
0.0
 31
0.0
  0
LINE
  5
AA
330
A3
100
AcDbEntity
  8
FORMAT
 62
     0
100
AcDbLine
 10
0.0
 20
5.0
 30
0.0
 11
0.0
 21
13.5
 31
0.0
  0
LINE
  5
AB
330
A3
100
AcDbEntity
  8
FORMAT
 62
     0
100
AcDbLine
 10
-5.0
 20
0.0
 30
0.0
 11
-13.5
 21
0.0
 31
0.0
  0
LINE
  5
AC
330
A3
100
AcDbEntity
  8
FORMAT
 62
     0
100
AcDbLine
 10
0.0
 20
-5.0
 30
0.0
 11
0.0
 21
-13.5
 31
0.0
  0
LINE
  5
AD
330
A3
100
AcDbEntity
  8
FORMAT
 62
     0
100
AcDbLine
 10
5.0
 20
0.0
 30
0.0
 11
13.5
 21
0.0
 31
0.0
  0
ENDBLK
  5
A5
330
A3
100
AcDbEntity
  8
0
100
AcDbBlockEnd
  0
BLOCK
  5
B0
330
AF
100
AcDbEntity
  8
0
100
AcDbBlockBegin
  2
SW_CENTERMARKSYMBOL_2
 70
     0
 10
0.0
 20
0.0
 30
0.0
  3
SW_CENTERMARKSYMBOL_2
  1

  0
LINE
  5
B2
330
AF
100
AcDbEntity
  8
FORMAT
 62
     0
100
AcDbLine
 10
0.0
 20
0.0
 30
0.0
 11
0.0
 21
2.5
 31
0.0
  0
LINE
  5
B3
330
AF
100
AcDbEntity
  8
FORMAT
 62
     0
100
AcDbLine
 10
0.0
 20
0.0
 30
0.0
 11
-2.5
 21
0.0
 31
0.0
  0
LINE
  5
B4
330
AF
100
AcDbEntity
  8
FORMAT
 62
     0
100
AcDbLine
 10
0.0
 20
0.0
 30
0.0
 11
0.0
 21
-2.5
 31
0.0
  0
LINE
  5
B5
330
AF
100
AcDbEntity
  8
FORMAT
 62
     0
100
AcDbLine
 10
0.0
 20
0.0
 30
0.0
 11
2.5
 21
0.0
 31
0.0
  0
LINE
  5
B6
330
AF
100
AcDbEntity
  8
FORMAT
 62
     0
100
AcDbLine
 10
0.0
 20
5.0
 30
0.0
 11
0.0
 21
13.5
 31
0.0
  0
LINE
  5
B7
330
AF
100
AcDbEntity
  8
FORMAT
 62
     0
100
AcDbLine
 10
-5.0
 20
0.0
 30
0.0
 11
-13.5
 21
0.0
 31
0.0
  0
LINE
  5
B8
330
AF
100
AcDbEntity
  8
FORMAT
 62
     0
100
AcDbLine
 10
0.0
 20
-5.0
 30
0.0
 11
0.0
 21
-13.5
 31
0.0
  0
LINE
  5
B9
330
AF
100
AcDbEntity
  8
FORMAT
 62
     0
100
AcDbLine
 10
5.0
 20
0.0
 30
0.0
 11
13.5
 21
0.0
 31
0.0
  0
ENDBLK
  5
B1
330
AF
100
AcDbEntity
  8
0
100
AcDbBlockEnd
  0
BLOCK
  5
BC
330
BB
100
AcDbEntity
  8
0
100
AcDbBlockBegin
  2
SW_CENTERMARKSYMBOL_3
 70
     0
 10
0.0
 20
0.0
 30
0.0
  3
SW_CENTERMARKSYMBOL_3
  1

  0
LINE
  5
BE
330
BB
100
AcDbEntity
  8
FORMAT
 62
     0
100
AcDbLine
 10
0.0
 20
0.0
 30
0.0
 11
0.0
 21
2.5
 31
0.0
  0
LINE
  5
BF
330
BB
100
AcDbEntity
  8
FORMAT
 62
     0
100
AcDbLine
 10
0.0
 20
0.0
 30
0.0
 11
-2.5
 21
0.0
 31
0.0
  0
LINE
  5
C0
330
BB
100
AcDbEntity
  8
FORMAT
 62
     0
100
AcDbLine
 10
0.0
 20
0.0
 30
0.0
 11
0.0
 21
-2.5
 31
0.0
  0
LINE
  5
C1
330
BB
100
AcDbEntity
  8
FORMAT
 62
     0
100
AcDbLine
 10
0.0
 20
0.0
 30
0.0
 11
2.5
 21
0.0
 31
0.0
  0
LINE
  5
C2
330
BB
100
AcDbEntity
  8
FORMAT
 62
     0
100
AcDbLine
 10
0.0
 20
5.0
 30
0.0
 11
0.0
 21
13.5
 31
0.0
  0
LINE
  5
C3
330
BB
100
AcDbEntity
  8
FORMAT
 62
     0
100
AcDbLine
 10
-5.0
 20
0.0
 30
0.0
 11
-13.5
 21
0.0
 31
0.0
  0
LINE
  5
C4
330
BB
100
AcDbEntity
  8
FORMAT
 62
     0
100
AcDbLine
 10
0.0
 20
-5.0
 30
0.0
 11
0.0
 21
-13.5
 31
0.0
  0
LINE
  5
C5
330
BB
100
AcDbEntity
  8
FORMAT
 62
     0
100
AcDbLine
 10
5.0
 20
0.0
 30
0.0
 11
13.5
 21
0.0
 31
0.0
  0
ENDBLK
  5
BD
330
BB
100
AcDbEntity
  8
0
100
AcDbBlockEnd
  0
BLOCK
  5
C8
330
C7
100
AcDbEntity
  8
0
100
AcDbBlockBegin
  2
SW_CENTERMARKSYMBOL_4
 70
     0
 10
0.0
 20
0.0
 30
0.0
  3
SW_CENTERMARKSYMBOL_4
  1

  0
LINE
  5
CA
330
C7
100
AcDbEntity
  8
FORMAT
 62
     0
100
AcDbLine
 10
0.0
 20
0.0
 30
0.0
 11
0.0
 21
2.5
 31
0.0
  0
LINE
  5
CB
330
C7
100
AcDbEntity
  8
FORMAT
 62
     0
100
AcDbLine
 10
0.0
 20
0.0
 30
0.0
 11
-2.5
 21
0.0
 31
0.0
  0
LINE
  5
CC
330
C7
100
AcDbEntity
  8
FORMAT
 62
     0
100
AcDbLine
 10
0.0
 20
0.0
 30
0.0
 11
0.0
 21
-2.5
 31
0.0
  0
LINE
  5
CD
330
C7
100
AcDbEntity
  8
FORMAT
 62
     0
100
AcDbLine
 10
0.0
 20
0.0
 30
0.0
 11
2.5
 21
0.0
 31
0.0
  0
LINE
  5
CE
330
C7
100
AcDbEntity
  8
FORMAT
 62
     0
100
AcDbLine
 10
0.0
 20
5.0
 30
0.0
 11
0.0
 21
13.5
 31
0.0
  0
LINE
  5
CF
330
C7
100
AcDbEntity
  8
FORMAT
 62
     0
100
AcDbLine
 10
-5.0
 20
0.0
 30
0.0
 11
-13.5
 21
0.0
 31
0.0
  0
LINE
  5
D0
330
C7
100
AcDbEntity
  8
FORMAT
 62
     0
100
AcDbLine
 10
0.0
 20
-5.0
 30
0.0
 11
0.0
 21
-13.5
 31
0.0
  0
LINE
  5
D1
330
C7
100
AcDbEntity
  8
FORMAT
 62
     0
100
AcDbLine
 10
5.0
 20
0.0
 30
0.0
 11
13.5
 21
0.0
 31
0.0
  0
ENDBLK
  5
C9
330
C7
100
AcDbEntity
  8
0
100
AcDbBlockEnd
  0
BLOCK
  5
D4
330
D3
100
AcDbEntity
  8
0
100
AcDbBlockBegin
  2
SW_CENTERMARKSYMBOL_5
 70
     0
 10
0.0
 20
0.0
 30
0.0
  3
SW_CENTERMARKSYMBOL_5
  1

  0
LINE
  5
D6
330
D3
100
AcDbEntity
  8
FORMAT
 62
     0
100
AcDbLine
 10
0.0
 20
0.0
 30
0.0
 11
0.0
 21
2.5
 31
0.0
  0
LINE
  5
D7
330
D3
100
AcDbEntity
  8
FORMAT
 62
     0
100
AcDbLine
 10
0.0
 20
0.0
 30
0.0
 11
-2.5
 21
0.0
 31
0.0
  0
LINE
  5
D8
330
D3
100
AcDbEntity
  8
FORMAT
 62
     0
100
AcDbLine
 10
0.0
 20
0.0
 30
0.0
 11
0.0
 21
-2.5
 31
0.0
  0
LINE
  5
D9
330
D3
100
AcDbEntity
  8
FORMAT
 62
     0
100
AcDbLine
 10
0.0
 20
0.0
 30
0.0
 11
2.5
 21
0.0
 31
0.0
  0
LINE
  5
DA
330
D3
100
AcDbEntity
  8
FORMAT
 62
     0
100
AcDbLine
 10
0.0
 20
5.0
 30
0.0
 11
0.0
 21
14.5
 31
0.0
  0
LINE
  5
DB
330
D3
100
AcDbEntity
  8
FORMAT
 62
     0
100
AcDbLine
 10
-5.0
 20
0.0
 30
0.0
 11
-14.5
 21
0.0
 31
0.0
  0
LINE
  5
DC
330
D3
100
AcDbEntity
  8
FORMAT
 62
     0
100
AcDbLine
 10
0.0
 20
-5.0
 30
0.0
 11
0.0
 21
-14.5
 31
0.0
  0
LINE
  5
DD
330
D3
100
AcDbEntity
  8
FORMAT
 62
     0
100
AcDbLine
 10
5.0
 20
0.0
 30
0.0
 11
14.5
 21
0.0
 31
0.0
  0
ENDBLK
  5
D5
330
D3
100
AcDbEntity
  8
0
100
AcDbBlockEnd
  0
BLOCK
  5
E0
330
DF
100
AcDbEntity
  8
0
100
AcDbBlockBegin
  2
SW_CENTERMARKSYMBOL_6
 70
     0
 10
0.0
 20
0.0
 30
0.0
  3
SW_CENTERMARKSYMBOL_6
  1

  0
LINE
  5
E2
330
DF
100
AcDbEntity
  8
FORMAT
 62
     0
100
AcDbLine
 10
0.0
 20
0.0
 30
0.0
 11
0.0
 21
2.5
 31
0.0
  0
LINE
  5
E3
330
DF
100
AcDbEntity
  8
FORMAT
 62
     0
100
AcDbLine
 10
0.0
 20
0.0
 30
0.0
 11
-2.5
 21
0.0
 31
0.0
  0
LINE
  5
E4
330
DF
100
AcDbEntity
  8
FORMAT
 62
     0
100
AcDbLine
 10
0.0
 20
0.0
 30
0.0
 11
0.0
 21
-2.5
 31
0.0
  0
LINE
  5
E5
330
DF
100
AcDbEntity
  8
FORMAT
 62
     0
100
AcDbLine
 10
0.0
 20
0.0
 30
0.0
 11
2.5
 21
0.0
 31
0.0
  0
LINE
  5
E6
330
DF
100
AcDbEntity
  8
FORMAT
 62
     0
100
AcDbLine
 10
0.0
 20
5.0
 30
0.0
 11
0.0
 21
14.5
 31
0.0
  0
LINE
  5
E7
330
DF
100
AcDbEntity
  8
FORMAT
 62
     0
100
AcDbLine
 10
-5.0
 20
0.0
 30
0.0
 11
-14.5
 21
0.0
 31
0.0
  0
LINE
  5
E8
330
DF
100
AcDbEntity
  8
FORMAT
 62
     0
100
AcDbLine
 10
0.0
 20
-5.0
 30
0.0
 11
0.0
 21
-14.5
 31
0.0
  0
LINE
  5
E9
330
DF
100
AcDbEntity
  8
FORMAT
 62
     0
100
AcDbLine
 10
5.0
 20
0.0
 30
0.0
 11
14.5
 21
0.0
 31
0.0
  0
ENDBLK
  5
E1
330
DF
100
AcDbEntity
  8
0
100
AcDbBlockEnd
  0
BLOCK
  5
EC
330
EB
100
AcDbEntity
  8
0
100
AcDbBlockBegin
  2
SW_CENTERMARKSYMBOL_7
 70
     0
 10
0.0
 20
0.0
 30
0.0
  3
SW_CENTERMARKSYMBOL_7
  1

  0
LINE
  5
EE
330
EB
100
AcDbEntity
  8
FORMAT
 62
     0
100
AcDbLine
 10
0.0
 20
0.0
 30
0.0
 11
0.0
 21
2.5
 31
0.0
  0
LINE
  5
EF
330
EB
100
AcDbEntity
  8
FORMAT
 62
     0
100
AcDbLine
 10
0.0
 20
0.0
 30
0.0
 11
-2.5
 21
0.0
 31
0.0
  0
LINE
  5
F0
330
EB
100
AcDbEntity
  8
FORMAT
 62
     0
100
AcDbLine
 10
0.0
 20
0.0
 30
0.0
 11
0.0
 21
-2.5
 31
0.0
  0
LINE
  5
F1
330
EB
100
AcDbEntity
  8
FORMAT
 62
     0
100
AcDbLine
 10
0.0
 20
0.0
 30
0.0
 11
2.5
 21
0.0
 31
0.0
  0
LINE
  5
F2
330
EB
100
AcDbEntity
  8
FORMAT
 62
     0
100
AcDbLine
 10
0.0
 20
5.0
 30
0.0
 11
0.0
 21
14.5
 31
0.0
  0
LINE
  5
F3
330
EB
100
AcDbEntity
  8
FORMAT
 62
     0
100
AcDbLine
 10
-5.0
 20
0.0
 30
0.0
 11
-14.5
 21
0.0
 31
0.0
  0
LINE
  5
F4
330
EB
100
AcDbEntity
  8
FORMAT
 62
     0
100
AcDbLine
 10
0.0
 20
-5.0
 30
0.0
 11
0.0
 21
-14.5
 31
0.0
  0
LINE
  5
F5
330
EB
100
AcDbEntity
  8
FORMAT
 62
     0
100
AcDbLine
 10
5.0
 20
0.0
 30
0.0
 11
14.5
 21
0.0
 31
0.0
  0
ENDBLK
  5
ED
330
EB
100
AcDbEntity
  8
0
100
AcDbBlockEnd
  0
ENDSEC
  0
SECTION
  2
ENTITIES
  0
CIRCLE
  5
83
330
1F
100
AcDbEntity
  8
0
  6
Continuous
 62
     7
370
    25
100
AcDbCircle
 10
15.1105938204
 20
115.6909958732
 30
0.0
 40
12.0
  0
CIRCLE
  5
84
330
1F
100
AcDbEntity
  8
0
  6
Continuous
 62
     7
370
    25
100
AcDbCircle
 10
219.9634075628
 20
30.8381821308
 30
0.0
 40
11.99999999999997
  0
CIRCLE
  5
85
330
1F
100
AcDbEntity
  8
0
  6
Continuous
 62
     7
370
    25
100
AcDbCircle
 10
219.9634075628
 20
200.5438096156
 30
0.0
 40
11.99999999999997
  0
CIRCLE
  5
86
330
1F
100
AcDbEntity
  8
0
  6
Continuous
 62
     7
370
    25
100
AcDbCircle
 10
135.1105938204
 20
235.6909958732
 30
0.0
 40
11.99999999999997
  0
CIRCLE
  5
87
330
1F
100
AcDbEntity
  8
0
  6
Continuous
 62
     7
370
    25
100
AcDbCircle
 10
135.1105938204
 20
115.6909958732
 30
0.0
 40
141.5
  0
CIRCLE
  5
88
330
1F
100
AcDbEntity
  8
0
  6
Continuous
 62
     7
370
    25
100
AcDbCircle
 10
135.1105938204
 20
115.6909958732
 30
0.0
 40
90.0
  0
CIRCLE
  5
89
330
1F
100
AcDbEntity
  8
0
  6
Continuous
 62
     7
370
    25
100
AcDbCircle
 10
135.1105938204
 20
-4.3090041268
 30
0.0
 40
12.00000000000003
  0
CIRCLE
  5
8A
330
1F
100
AcDbEntity
  8
0
  6
Continuous
 62
     7
370
    25
100
AcDbCircle
 10
255.1105938204
 20
115.6909958732
 30
0.0
 40
12.0
  0
CIRCLE
  5
8B
330
1F
100
AcDbEntity
  8
0
  6
Continuous
 62
     7
370
    25
100
AcDbCircle
 10
50.257780078
 20
30.8381821308
 30
0.0
 40
12.0
  0
CIRCLE
  5
8C
330
1F
100
AcDbEntity
  8
0
  6
Continuous
 62
     7
370
    25
100
AcDbCircle
 10
50.257780078
 20
200.5438096156
 30
0.0
 40
12.0
  0
CIRCLE
  5
8D
330
1F
100
AcDbEntity
  8
0
  6
Continuous
 62
     7
370
    25
100
AcDbCircle
 10
135.1105938204
 20
-4.3090041268
 30
0.0
 40
11.00000000000003
  0
CIRCLE
  5
8E
330
1F
100
AcDbEntity
  8
0
  6
Continuous
 62
     7
370
    25
100
AcDbCircle
 10
135.1105938204
 20
115.6909958732
 30
0.0
 40
89.0
  0
CIRCLE
  5
8F
330
1F
100
AcDbEntity
  8
0
  6
Continuous
 62
     7
370
    25
100
AcDbCircle
 10
135.1105938204
 20
115.6909958732
 30
0.0
 40
142.5
  0
CIRCLE
  5
90
330
1F
100
AcDbEntity
  8
0
  6
Continuous
 62
     7
370
    25
100
AcDbCircle
 10
135.1105938204
 20
235.6909958732
 30
0.0
 40
11.0
  0
CIRCLE
  5
91
330
1F
100
AcDbEntity
  8
0
  6
Continuous
 62
     7
370
    25
100
AcDbCircle
 10
219.9634075628
 20
200.5438096156
 30
0.0
 40
10.99999999999997
  0
CIRCLE
  5
92
330
1F
100
AcDbEntity
  8
0
  6
Continuous
 62
     7
370
    25
100
AcDbCircle
 10
50.257780078
 20
200.5438096156
 30
0.0
 40
11.0
  0
CIRCLE
  5
93
330
1F
100
AcDbEntity
  8
0
  6
Continuous
 62
     7
370
    25
100
AcDbCircle
 10
50.257780078
 20
30.8381821308
 30
0.0
 40
11.0
  0
CIRCLE
  5
94
330
1F
100
AcDbEntity
  8
0
  6
Continuous
 62
     7
370
    25
100
AcDbCircle
 10
255.1105938204
 20
115.6909958732
 30
0.0
 40
11.0
  0
CIRCLE
  5
95
330
1F
100
AcDbEntity
  8
0
  6
Continuous
 62
     7
370
    25
100
AcDbCircle
 10
15.1105938204
 20
115.6909958732
 30
0.0
 40
10.99999999999999
  0
CIRCLE
  5
96
330
1F
100
AcDbEntity
  8
0
  6
Continuous
 62
     7
370
    25
100
AcDbCircle
 10
219.9634075628
 20
30.8381821308
 30
0.0
 40
10.99999999999997
  0
INSERT
  5
A2
330
1F
100
AcDbEntity
  8
FORMAT
 62
     7
100
AcDbBlockReference
  2
SW_CENTERMARKSYMBOL_0
 10
135.1105938204
 20
115.6909958732
 30
0.0
  0
INSERT
  5
AE
330
1F
100
AcDbEntity
  8
FORMAT
 62
     7
100
AcDbBlockReference
  2
SW_CENTERMARKSYMBOL_1
 10
135.1105938204
 20
235.6909958732
 30
0.0
  0
INSERT
  5
BA
330
1F
100
AcDbEntity
  8
FORMAT
 62
     7
100
AcDbBlockReference
  2
SW_CENTERMARKSYMBOL_2
 10
219.9634075628
 20
200.5438096156
 30
0.0
  0
INSERT
  5
C6
330
1F
100
AcDbEntity
  8
FORMAT
 62
     7
100
AcDbBlockReference
  2
SW_CENTERMARKSYMBOL_3
 10
255.1105938204
 20
115.6909958732
 30
0.0
  0
INSERT
  5
D2
330
1F
100
AcDbEntity
  8
FORMAT
 62
     7
100
AcDbBlockReference
  2
SW_CENTERMARKSYMBOL_4
 10
219.9634075628
 20
30.8381821308
 30
0.0
  0
INSERT
  5
DE
330
1F
100
AcDbEntity
  8
FORMAT
 62
     7
100
AcDbBlockReference
  2
SW_CENTERMARKSYMBOL_5
 10
50.257780078
 20
200.5438096156
 30
0.0
  0
INSERT
  5
EA
330
1F
100
AcDbEntity
  8
FORMAT
 62
     7
100
AcDbBlockReference
  2
SW_CENTERMARKSYMBOL_6
 10
15.1105938204
 20
115.6909958732
 30
0.0
  0
INSERT
  5
F6
330
1F
100
AcDbEntity
  8
FORMAT
 62
     7
100
AcDbBlockReference
  2
SW_CENTERMARKSYMBOL_7
 10
50.257780078
 20
30.8381821308
 30
0.0
  0
LINE
  5
F7
330
1F
100
AcDbEntity
  8
0
  6
Continuous
 62
     7
370
    25
100
AcDbLine
 10
-164.4737010279
 20
258.1909958732
 30
0.0
 11
-186.4737010279
 21
258.1909958732
 31
0.0
  0
LINE
  5
F8
330
1F
100
AcDbEntity
  8
0
  6
Continuous
 62
     7
370
    25
100
AcDbLine
 10
-186.4737010279
 20
-26.8090041268
 30
0.0
 11
-164.4737010279
 21
-26.8090041268
 31
0.0
  0
ARC
  5
F9
330
1F
100
AcDbEntity
  8
0
  6
Continuous
 62
     7
370
    25
100
AcDbCircle
 10
-164.4737010279
 20
-25.8090041268
 30
0.0
 40
1.0
100
AcDbArc
 50
270.0
 51
0.0
  0
ARC
  5
FA
330
1F
100
AcDbEntity
  8
0
  6
Continuous
 62
     7
370
    25
100
AcDbCircle
 10
-164.4737010279
 20
257.1909958732
 30
0.0
 40
1.0
100
AcDbArc
 50
0.0
 51
90.0
  0
ARC
  5
FB
330
1F
100
AcDbEntity
  8
0
  6
Continuous
 62
     7
370
    25
100
AcDbCircle
 10
-186.4737010279
 20
-25.8090041268
 30
0.0
 40
1.0
100
AcDbArc
 50
180.0
 51
270.0
  0
ARC
  5
FC
330
1F
100
AcDbEntity
  8
0
  6
Continuous
 62
     7
370
    25
100
AcDbCircle
 10
-186.4737010279
 20
257.1909958732
 30
0.0
 40
1.0
100
AcDbArc
 50
90.0
 51
180.0
  0
LINE
  5
FD
330
1F
100
AcDbEntity
  8
0
  6
Continuous
 62
     7
370
    25
100
AcDbLine
 10
-163.4737010279
 20
115.6909958732
 30
0.0
 11
-163.4737010279
 21
-25.8090041268
 31
0.0
  0
LINE
  5
FE
330
1F
100
AcDbEntity
  8
0
  6
Continuous
 62
     7
370
    25
100
AcDbLine
 10
-163.4737010279
 20
257.1909958732
 30
0.0
 11
-163.4737010279
 21
115.6909958732
 31
0.0
  0
LINE
  5
FF
330
1F
100
AcDbEntity
  8
0
  6
Continuous
 62
     7
370
    25
100
AcDbLine
 10
-187.4737010279
 20
115.6909958732
 30
0.0
 11
-187.4737010279
 21
257.1909958732
 31
0.0
  0
LINE
  5
100
330
1F
100
AcDbEntity
  8
0
  6
Continuous
 62
     7
370
    25
100
AcDbLine
 10
-187.4737010279
 20
-25.8090041268
 30
0.0
 11
-187.4737010279
 21
115.6909958732
 31
0.0
  0
LINE
  5
101
330
1F
100
AcDbEntity
  8
0
  6
Continuous
 62
     1
370
    25
100
AcDbLine
 10
-186.4737010279
 20
115.6909958732
 30
0.0
 11
-186.4737010279
 21
-26.8090041268
 31
0.0
  0
LINE
  5
102
330
1F
100
AcDbEntity
  8
0
  6
Continuous
 62
     1
370
    25
100
AcDbLine
 10
-186.4737010279
 20
258.1909958732
 30
0.0
 11
-186.4737010279
 21
115.6909958732
 31
0.0
  0
LINE
  5
103
330
1F
100
AcDbEntity
  8
0
  6
Continuous
 62
     1
370
    25
100
AcDbLine
 10
-164.4737010279
 20
115.6909958732
 30
0.0
 11
-164.4737010279
 21
258.1909958732
 31
0.0
  0
LINE
  5
104
330
1F
100
AcDbEntity
  8
0
  6
Continuous
 62
     1
370
    25
100
AcDbLine
 10
-164.4737010279
 20
-26.8090041268
 30
0.0
 11
-164.4737010279
 21
115.6909958732
 31
0.0
  0
LINE
  5
105
330
1F
100
AcDbEntity
  8
0
  6
Continuous
 62
     7
370
    25
100
AcDbLine
 10
402.2517853921
 20
-26.8090041268
 30
0.0
 11
424.2517853921
 21
-26.8090041268
 31
0.0
  0
LINE
  5
106
330
1F
100
AcDbEntity
  8
0
  6
Continuous
 62
     7
370
    25
100
AcDbLine
 10
424.2517853921
 20
258.1909958732
 30
0.0
 11
402.2517853921
 21
258.1909958732
 31
0.0
  0
ARC
  5
107
330
1F
100
AcDbEntity
  8
0
  6
Continuous
 62
     7
370
    25
100
AcDbCircle
 10
402.2517853921
 20
257.1909958732
 30
0.0
 40
1.0
100
AcDbArc
 50
90.0
 51
180.0
  0
ARC
  5
108
330
1F
100
AcDbEntity
  8
0
  6
Continuous
 62
     7
370
    25
100
AcDbCircle
 10
402.2517853921
 20
-25.8090041268
 30
0.0
 40
1.0
100
AcDbArc
 50
180.0
 51
270.0
  0
ARC
  5
109
330
1F
100
AcDbEntity
  8
0
  6
Continuous
 62
     7
370
    25
100
AcDbCircle
 10
424.2517853921
 20
257.1909958732
 30
0.0
 40
1.0
100
AcDbArc
 50
0.0
 51
90.0
  0
ARC
  5
10A
330
1F
100
AcDbEntity
  8
0
  6
Continuous
 62
     7
370
    25
100
AcDbCircle
 10
424.2517853921
 20
-25.8090041268
 30
0.0
 40
1.0
100
AcDbArc
 50
270.0
 51
0.0
  0
LINE
  5
10B
330
1F
100
AcDbEntity
  8
0
  6
Continuous
 62
     7
370
    25
100
AcDbLine
 10
401.2517853921
 20
-25.8090041268
 30
0.0
 11
401.2517853921
 21
257.1909958732
 31
0.0
  0
LINE
  5
10C
330
1F
100
AcDbEntity
  8
0
  6
Continuous
 62
     7
370
    25
100
AcDbLine
 10
425.2517853921
 20
257.1909958732
 30
0.0
 11
425.2517853921
 21
-25.8090041268
 31
0.0
  0
LINE
  5
10D
330
1F
100
AcDbEntity
  8
0
  6
Continuous
 62
     1
370
    25
100
AcDbLine
 10
424.2517853921
 20
-26.8090041268
 30
0.0
 11
424.2517853921
 21
258.1909958732
 31
0.0
  0
LINE
  5
10E
330
1F
100
AcDbEntity
  8
0
  6
Continuous
 62
     1
370
    25
100
AcDbLine
 10
402.2517853921
 20
258.1909958732
 30
0.0
 11
402.2517853921
 21
-26.8090041268
 31
0.0
  0
LINE
  5
10F
330
1F
100
AcDbEntity
  8
0
  6
Continuous
 62
     7
370
    25
100
AcDbLine
 10
277.6105938204
 20
338.2498171298
 30
0.0
 11
277.6105938204
 21
360.2498171298
 31
0.0
  0
LINE
  5
110
330
1F
100
AcDbEntity
  8
0
  6
Continuous
 62
     7
370
    25
100
AcDbLine
 10
-7.3894061796
 20
360.2498171298
 30
0.0
 11
-7.3894061796
 21
338.2498171298
 31
0.0
  0
ARC
  5
111
330
1F
100
AcDbEntity
  8
0
  6
Continuous
 62
     7
370
    25
100
AcDbCircle
 10
-6.3894061796
 20
338.2498171298
 30
0.0
 40
1.000000000000001
100
AcDbArc
 50
180.0
 51
270.0
  0
ARC
  5
112
330
1F
100
AcDbEntity
  8
0
  6
Continuous
 62
     7
370
    25
100
AcDbCircle
 10
276.6105938204
 20
338.2498171298
 30
0.0
 40
1.0
100
AcDbArc
 50
270.0
 51
0.0
  0
ARC
  5
113
330
1F
100
AcDbEntity
  8
0
  6
Continuous
 62
     7
370
    25
100
AcDbCircle
 10
-6.3894061796
 20
360.2498171298
 30
0.0
 40
1.000000000000001
100
AcDbArc
 50
90.0
 51
180.0
  0
ARC
  5
114
330
1F
100
AcDbEntity
  8
0
  6
Continuous
 62
     7
370
    25
100
AcDbCircle
 10
276.6105938204
 20
360.2498171298
 30
0.0
 40
1.0
100
AcDbArc
 50
0.0
 51
90.0
  0
LINE
  5
115
330
1F
100
AcDbEntity
  8
0
  6
Continuous
 62
     7
370
    25
100
AcDbLine
 10
276.6105938204
 20
337.2498171298
 30
0.0
 11
-6.3894061796
 21
337.2498171298
 31
0.0
  0
LINE
  5
116
330
1F
100
AcDbEntity
  8
0
  6
Continuous
 62
     7
370
    25
100
AcDbLine
 10
-6.3894061791
 20
361.2498171298
 30
0.0
 11
276.6105938204
 21
361.2498171298
 31
0.0
  0
LINE
  5
117
330
1F
100
AcDbEntity
  8
0
  6
Continuous
 62
     1
370
    25
100
AcDbLine
 10
277.6105938204
 20
360.2498171298
 30
0.0
 11
-7.3894061796
 21
360.2498171298
 31
0.0
  0
LINE
  5
118
330
1F
100
AcDbEntity
  8
0
  6
Continuous
 62
     1
370
    25
100
AcDbLine
 10
-7.3894061796
 20
338.2498171298
 30
0.0
 11
277.6105938204
 21
338.2498171298
 31
0.0
  0
LINE
  5
119
330
1F
100
AcDbEntity
  8
0
  6
Continuous
 62
     7
370
    25
100
AcDbLine
 10
-7.3894061796
 20
-193.9446982761
 30
0.0
 11
-7.3894061796
 21
-215.9446982761
 31
0.0
  0
LINE
  5
11A
330
1F
100
AcDbEntity
  8
0
  6
Continuous
 62
     7
370
    25
100
AcDbLine
 10
277.6105938204
 20
-215.9446982761
 30
0.0
 11
277.6105938204
 21
-193.9446982761
 31
0.0
  0
ARC
  5
11B
330
1F
100
AcDbEntity
  8
0
  6
Continuous
 62
     7
370
    25
100
AcDbCircle
 10
276.6105938204
 20
-193.9446982761
 30
0.0
 40
1.0
100
AcDbArc
 50
0.0
 51
90.0
  0
ARC
  5
11C
330
1F
100
AcDbEntity
  8
0
  6
Continuous
 62
     7
370
    25
100
AcDbCircle
 10
-6.3894061796
 20
-193.9446982761
 30
0.0
 40
1.000000000000001
100
AcDbArc
 50
90.0
 51
180.0
  0
ARC
  5
11D
330
1F
100
AcDbEntity
  8
0
  6
Continuous
 62
     7
370
    25
100
AcDbCircle
 10
276.6105938204
 20
-215.9446982761
 30
0.0
 40
1.000000000000028
100
AcDbArc
 50
270.0
 51
0.0
  0
ARC
  5
11E
330
1F
100
AcDbEntity
  8
0
  6
Continuous
 62
     7
370
    25
100
AcDbCircle
 10
-6.3894061796
 20
-215.9446982761
 30
0.0
 40
1.000000000000028
100
AcDbArc
 50
180.0
 51
270.0
  0
LINE
  5
11F
330
1F
100
AcDbEntity
  8
0
  6
Continuous
 62
     7
370
    25
100
AcDbLine
 10
-6.3894061791
 20
-192.9446982761
 30
0.0
 11
276.6105938204
 21
-192.9446982761
 31
0.0
  0
LINE
  5
120
330
1F
100
AcDbEntity
  8
0
  6
Continuous
 62
     7
370
    25
100
AcDbLine
 10
276.6105938204
 20
-216.9446982761
 30
0.0
 11
-6.3894061796
 21
-216.9446982761
 31
0.0
  0
LINE
  5
121
330
1F
100
AcDbEntity
  8
0
  6
Continuous
 62
     1
370
    25
100
AcDbLine
 10
-7.3894061796
 20
-215.9446982761
 30
0.0
 11
277.6105938204
 21
-215.9446982761
 31
0.0
  0
LINE
  5
122
330
1F
100
AcDbEntity
  8
0
  6
Continuous
 62
     1
370
    25
100
AcDbLine
 10
277.6105938204
 20
-193.9446982761
 30
0.0
 11
-7.3894061796
 21
-193.9446982761
 31
0.0
  0
SPLINE
  5
123
330
1F
100
AcDbEntity
  8
0
  6
Continuous
 62
     7
370
    25
100
AcDbSpline
210
0.0
220
0.0
230
1.0
 70
     8
 71
     3
 72
    73
 73
    69
 74
     0
 42
0.00000001
 43
0.00000001
 40
0.0
 40
0.0
 40
0.0
 40
0.0
 40
0.0125691386918439
 40
0.0278089037815766
 40
0.043061101441683
 40
0.0583255467041286
 40
0.0736014525456918
 40
0.0888876140075781
 40
0.1041825877251954
 40
0.1194848456694248
 40
0.134792892730597
 40
0.150105346629328
 40
0.1654209843961277
 40
0.1807387624345919
 40
0.1960578177231656
 40
0.2113774569125991
 40
0.2266970216393529
 40
0.2420161082968978
 40
0.257334450686473
 40
0.2726518677432838
 40
0.2879682469252288
 40
0.3032835300305981
 40
0.3185977013751543
 40
0.333910778123106
 40
0.3492228025046942
 40
0.3645338356390913
 40
0.3798439526943659
 40
0.3951532391428585
 40
0.4104617879021201
 40
0.4257696971835695
 40
0.4410770689006938
 40
0.4563840075144569
 40
0.4716906192155292
 40
0.4869970113606588
 40
0.5023032920945573
 40
0.5176095700991558
 40
0.532915931270214
 40
0.5482224717177454
 40
0.563529300850481
 40
0.5788365280026687
 40
0.5941442621466708
 40
0.6094526114618645
 40
0.6247616826959886
 40
0.6400715802450737
 40
0.6553824048625152
 40
0.6706942518882614
 40
0.6860072088652015
 40
0.701321352381765
 40
0.716636743947908
 40
0.7319534246777284
 40
0.7472714085188994
 40
0.762590673742848
 40
0.7779111523995883
 40
0.7932327174627632
 40
0.8085551674670458
 40
0.8238782086046376
 40
0.8392013518435955
 40
0.8545239277924281
 40
0.8698451844534064
 40
0.8851641895916083
 40
0.9004798210155208
 40
0.9157907707098286
 40
0.9310955700917474
 40
0.9463926443040926
 40
0.9616804024831114
 40
0.9769573674048374
 40
0.9922223411091776
 40
1.0
 40
1.0
 40
1.0
 40
1.0
 10
492.3738101638527
 20
-64.951787958697
 30
0.0
 10
491.3966225366333
 20
-64.78155542630637
 30
0.0
 10
489.2346194457196
 20
-64.40492022243075
 30
0.0
 10
485.7781774511977
 20
-64.09466777263125
 30
0.0
 10
482.0329376402826
 20
-63.96855716486707
 30
0.0
 10
478.2061153080289
 20
-64.07686663482865
 30
0.0
 10
474.3078676758484
 20
-64.41133245964717
 30
0.0
 10
470.3442135789758
 20
-64.97370029965951
 30
0.0
 10
466.3224865105635
 20
-65.76245964670655
 30
0.0
 10
462.2498254376501
 20
-66.77640089161474
 30
0.0
 10
458.133536796135
 20
-68.01367005990846
 30
0.0
 10
453.9809608773801
 20
-69.47203791006918
 30
0.0
 10
449.799478168234
 20
-71.14884684023365
 30
0.0
 10
445.5964846340527
 20
-73.04104512947329
 30
0.0
 10
441.3793805164058
 20
-75.14519706385694
 30
0.0
 10
437.155569949798
 20
-77.45749210310207
 30
0.0
 10
432.9324407851757
 20
-79.97376071949883
 30
0.0
 10
428.7173535870893
 20
-82.6894874409729
 30
0.0
 10
424.5176233567644
 20
-85.59982959682799
 30
0.0
 10
420.340523164615
 20
-88.69962068382253
 30
0.0
 10
416.1932783775762
 20
-91.98337742598794
 30
0.0
 10
412.0830572771851
 20
-95.44530870830309
 30
0.0
 10
408.016961174706
 20
-99.07932474181068
 30
0.0
 10
404.0020140945776
 20
-102.8790465980045
 30
0.0
 10
400.0451521161271
 20
-106.8378162041372
 30
0.0
 10
396.1532124688681
 20
-110.9487068550875
 30
0.0
 10
392.3329224745033
 20
-115.2045342695049
 30
0.0
 10
388.590888422319
 20
-119.5978681972971
 30
0.0
 10
384.933584456398
 20
-124.1210445705963
 30
0.0
 10
381.3673415443818
 20
-128.766178179847
 30
0.0
 10
377.8983365892263
 20
-133.5251758494148
 30
0.0
 10
374.5325817378938
 20
-138.3897500822497
 30
0.0
 10
371.2759139344135
 20
-143.3514331398321
 30
0.0
 10
368.1339847591233
 20
-148.4015915215651
 30
0.0
 10
365.1122505914423
 20
-153.531440805837
 30
0.0
 10
362.2159645889669
 20
-158.7320581935102
 30
0.0
 10
359.450166631103
 20
-163.99439892773
 30
0.0
 10
356.8196736329657
 20
-169.3093135001576
 30
0.0
 10
354.3290701118768
 20
-174.6675663722412
 30
0.0
 10
351.9827012467511
 20
-180.0598510048062
 30
0.0
 10
349.784666378602
 20
-185.476804524165
 30
0.0
 10
347.7388122176266
 20
-190.9090239673467
 30
0.0
 10
345.8487265667105
 20
-196.3470825461112
 30
0.0
 10
344.117732574562
 20
-201.7815458752052
 30
0.0
 10
342.5488835273208
 20
-207.2029881063324
 30
0.0
 10
341.1449581819735
 20
-212.6020079042342
 30
0.0
 10
339.9084566374746
 20
-217.9692441956613
 30
0.0
 10
338.8415967295109
 20
-223.2953916160289
 30
0.0
 10
337.9463109215334
 20
-228.5712155727094
 30
0.0
 10
337.2242436471533
 20
-233.787566839013
 30
0.0
 10
336.676749036158
 20
-238.9353955904807
 30
0.0
 10
336.3048889278639
 20
-244.0057647966707
 30
0.0
 10
336.1094310388779
 20
-248.989862892661
 30
0.0
 10
336.0908471150161
 20
-253.8790156705743
 30
0.0
 10
336.2493108343903
 20
-258.6646973916507
 30
0.0
 10
336.5846946413751
 20
-263.3385326984405
 30
0.0
 10
337.0965639735074
 20
-267.8923031370024
 30
0.0
 10
337.7841715669107
 20
-272.3179652882959
 30
0.0
 10
338.6464508031018
 20
-276.6076706540128
 30
0.0
 10
339.6820159075744
 20
-280.753772250167
 30
0.0
 10
340.8891303401243
 20
-284.7488588188538
 30
0.0
 10
342.2657789393053
 20
-288.5856649375603
 30
0.0
 10
343.8093547435752
 20
-292.2574897788366
 30
0.0
 10
345.5177876696953
 20
-295.7567395977553
 30
0.0
 10
347.3853103228813
 20
-299.0804908784872
 30
0.0
 10
349.418246188692
 20
-302.2098985672741
 30
0.0
 10
351.2239680503461
 20
-304.7011812377982
 30
0.0
 10
352.408278706005
 20
-306.072570612231
 30
0.0
 10
352.8080231476368
 20
-306.5354603760975
 30
0.0
  0
LINE
  5
124
330
1F
100
AcDbEntity
  8
0
  6
Continuous
 62
     7
370
    25
100
AcDbLine
 10
523.9627067894
 20
-79.7500818824
 30
0.0
 11
508.4063576033
 21
-70.7695926524
 31
0.0
  0
LINE
  5
125
330
1F
100
AcDbEntity
  8
0
  6
Continuous
 62
     7
370
    25
100
AcDbLine
 10
365.9179382027
 20
-317.5935184309
 30
0.0
 11
381.4742873888
 21
-326.5740076609
 31
0.0
  0
SPLINE
  5
126
330
1F
100
AcDbEntity
  8
0
  6
Continuous
 62
     7
370
    25
100
AcDbSpline
210
0.0
220
0.0
230
1.0
 70
     8
 71
     3
 72
    59
 73
    55
 74
     0
 42
0.00000001
 43
0.00000001
 40
0.0
 40
0.0
 40
0.0
 40
0.0
 40
0.0136482271190088
 40
0.0330017883799598
 40
0.0523711026856117
 40
0.0717560516255647
 40
0.0911557229777667
 40
0.1105686425972045
 40
0.1299930050372982
 40
0.1494268741454394
 40
0.1688683387476826
 40
0.18831562023317
 40
0.2077671366963075
 40
0.2272215322697821
 40
0.2466776812742444
 40
0.2661346759599842
 40
0.2855916782814468
 40
0.3050481270836308
 40
0.3245036683517616
 40
0.3439580591910621
 40
0.3634111463307961
 40
0.3828628477066887
 40
0.4023131370637538
 40
0.4217620313351298
 40
0.4412095804636283
 40
0.4606558593086781
 40
0.4801009612944615
 40
0.4995449934873862
 40
0.5189880728308938
 40
0.5384303233066042
 40
0.5578718738287785
 40
0.5773128567128357
 40
0.596753406586954
 40
0.6161936596391563
 40
0.6356337531105923
 40
0.6550738249596698
 40
0.674513990288408
 40
0.6939543650716887
 40
0.7133950882583397
 40
0.7328362987410113
 40
0.7522781350093467
 40
0.771720734630951
 40
0.7911642334798457
 40
0.8106087646208453
 40
0.8300544567391613
 40
0.8495014319802859
 40
0.8689498030356758
 40
0.8883996692747314
 40
0.9078511116837105
 40
0.9273041863292374
 40
0.9467589160217043
 40
0.9662152798187427
 40
0.9856731999925389
 40
0.9999999999999999
 40
0.9999999999999999
 40
0.9999999999999999
 40
0.9999999999999999
 10
397.4686844674874
 20
-332.3770650583906
 30
0.0
 10
398.3015651194845
 20
-332.5287771954028
 30
0.0
 10
400.3154934329052
 20
-332.8956213134475
 30
0.0
 10
403.6170507041218
 20
-333.2150557999328
 30
0.0
 10
407.3508720682037
 20
-333.3724399667292
 30
0.0
 10
411.1678679820375
 20
-333.2937009920062
 30
0.0
 10
415.0569926163791
 20
-332.9892424957554
 30
0.0
 10
419.0124958289102
 20
-332.4566705270936
 30
0.0
 10
423.0269962251605
 20
-331.6975941721077
 30
0.0
 10
427.09338589296
 20
-330.713121738894
 30
0.0
 10
431.204362974277
 20
-329.5050611336309
 30
0.0
 10
435.3525944607591
 20
-328.0755830267806
 30
0.0
 10
439.5307029420259
 20
-326.4272924044638
 30
0.0
 10
443.7312939619667
 20
-324.5631893888512
 30
0.0
 10
447.9469671098965
 20
-322.4866602808067
 30
0.0
 10
452.1703184288294
 20
-320.2014669226846
 30
0.0
 10
456.3939570690324
 20
-317.7117325652152
 30
0.0
 10
460.6105184490682
 20
-315.0219278763992
 30
0.0
 10
464.8126809741021
 20
-312.1368533258317
 30
0.0
 10
468.9931659779447
 20
-309.0616331620307
 30
0.0
 10
473.1447413059764
 20
-305.8017095713693
 30
0.0
 10
477.2602306270903
 20
-302.36283376202
 30
0.0
 10
481.3325232560427
 20
-298.7510568381947
 30
0.0
 10
485.3545844182048
 20
-294.9727203203482
 30
0.0
 10
489.3194658683909
 20
-291.0344462142614
 30
0.0
 10
493.2203167686158
 20
-286.943126569107
 30
0.0
 10
497.0503947310722
 20
-282.7059124935563
 30
0.0
 10
500.803076938648
 20
-278.3302026205156
 30
0.0
 10
504.4718712634299
 20
-273.8236310266639
 30
0.0
 10
508.0504273123228
 20
-269.194054623991
 30
0.0
 10
511.532547337302
 20
-264.4495400481264
 30
0.0
 10
514.9121969554151
 20
-259.5983500734052
 30
0.0
 10
518.1835156303085
 20
-254.648929588065
 30
0.0
 10
521.3408268727737
 20
-249.6098911652071
 30
0.0
 10
524.3786481224485
 20
-244.4900002670163
 30
0.0
 10
527.291699111362
 20
-239.2981621979835
 30
0.0
 10
530.0749113223515
 20
-234.0434067805884
 30
0.0
 10
532.7234380796748
 20
-228.7348706767107
 30
0.0
 10
535.2326638156824
 20
-223.381779250863
 30
0.0
 10
537.5982116005923
 20
-217.9934304415973
 30
0.0
 10
539.8159494154341
 20
-212.5791806496315
 30
0.0
 10
541.8819970002345
 20
-207.1484285055271
 30
0.0
 10
543.7927322414928
 20
-201.7105985807569
 30
0.0
 10
545.5447968312584
 20
-196.2751252423004
 30
0.0
 10
547.1351021360365
 20
-190.851436163961
 30
0.0
 10
548.5608317342947
 20
-185.4489375903294
 30
0.0
 10
549.8194538273726
 20
-180.0769938338086
 30
0.0
 10
550.9086942613678
 20
-174.744929401046
 30
0.0
 10
551.8266541030523
 20
-169.4619481182273
 30
0.0
 10
552.5713853401759
 20
-164.2373639060543
 30
0.0
 10
553.1424870357774
 20
-159.0796705722926
 30
0.0
 10
553.53515832511
 20
-153.9999476660371
 30
0.0
 10
553.7424242612077
 20
-149.438788123084
 30
0.0
 10
553.7646721523448
 20
-146.6035052450889
 30
0.0
 10
553.7741066270186
 20
-145.4011708602048
 30
0.0
  0
SPLINE
  5
127
330
1F
100
AcDbEntity
  8
0
  6
Continuous
 62
     7
370
    25
100
AcDbSpline
210
0.0
220
0.0
230
1.0
 70
     8
 71
     3
 72
    22
 73
    18
 74
     0
 42
0.00000001
 43
0.00000001
 40
0.0
 40
0.0
 40
0.0
 40
0.0
 40
0.0376355523861987
 40
0.1091169451863675
 40
0.1806055493708017
 40
0.252094221655612
 40
0.3235798318655324
 40
0.3950587653352097
 40
0.4665265579265417
 40
0.5379778574502425
 40
0.6094064538360784
 40
0.6808054126513348
 40
0.7521673488100403
 40
0.823484871450354
 40
0.8947512126016033
 40
0.9659610184363615
 40
1.0
 40
1.0
 40
1.0
 40
1.0
 10
553.7741066270186
 20
-145.4011708602048
 30
0.0
 10
553.7691712694946
 20
-144.5479871351104
 30
0.0
 10
553.7548621627514
 20
-142.0743472955856
 30
0.0
 10
553.5958756487022
 20
-138.0593194743472
 30
0.0
 10
553.239187420479
 20
-133.3998433706455
 30
0.0
 10
552.703683846417
 20
-128.8627202373379
 30
0.0
 10
551.993207430345
 20
-124.4543934533341
 30
0.0
 10
551.1080507096294
 20
-120.1831335820698
 30
0.0
 10
550.04986119716
 20
-116.0564402835789
 30
0.0
 10
548.8203620648366
 20
-112.0817268735483
 30
0.0
 10
547.4216272226209
 20
-108.266222405005
 30
0.0
 10
545.856316126974
 20
-104.6165806175503
 30
0.0
 10
544.1265101860869
 20
-101.1404106229326
 30
0.0
 10
542.2381616683136
 20
-97.84038978035211
 30
0.0
 10
540.1844774434865
 20
-94.73607329492293
 30
0.0
 10
538.3859529339553
 20
-92.29552766843011
 30
0.0
 10
537.2172937911837
 20
-90.96505392895247
 30
0.0
 10
536.8393325053742
 20
-90.53475945992875
 30
0.0
  0
SPLINE
  5
128
330
1F
100
AcDbEntity
  8
0
  6
Continuous
 62
     7
370
    25
100
AcDbSpline
210
0.0
220
0.0
230
1.0
 70
     8
 71
     3
 72
    14
 73
    10
 74
     0
 42
0.00000001
 43
0.00000001
 40
0.0
 40
0.0
 40
0.0
 40
0.0
 40
0.053263423059235
 40
0.2528808595227472
 40
0.4308897066514741
 40
0.6201064939466323
 40
0.8032280585694105
 40
0.9731718040508207
 40
1.0
 40
1.0
 40
1.0
 40
1.0
 10
502.5091862700403
 20
-219.2462328281787
 30
0.0
 10
502.5803533948796
 20
-219.2751126387815
 30
0.0
 10
502.9182363671987
 20
-219.4122264573948
 30
0.0
 10
503.3805659985073
 20
-219.8396788119354
 30
0.0
 10
503.9191492465077
 20
-220.5533305146276
 30
0.0
 10
504.318369975684
 20
-221.460778103652
 30
0.0
 10
504.5714351365963
 20
-222.5380169049244
 30
0.0
 10
504.6442109545175
 20
-223.3972149226341
 30
0.0
 10
504.6470431335127
 20
-223.867508943179
 30
0.0
 10
504.6474292772509
 20
-223.9316295695507
 30
0.0
  0
SPLINE
  5
129
330
1F
100
AcDbEntity
  8
0
  6
Continuous
 62
     7
370
    25
100
AcDbSpline
210
0.0
220
0.0
230
1.0
 70
     8
 71
     3
 72
    24
 73
    20
 74
     0
 42
0.00000001
 43
0.00000001
 40
0.0
 40
0.0
 40
0.0
 40
0.0
 40
0.031942565803319
 40
0.0932355257672731
 40
0.1547228205888328
 40
0.2163868675723777
 40
0.2781985543836218
 40
0.3401029521313608
 40
0.4020362224311838
 40
0.4639181712433075
 40
0.5256721111960269
 40
0.5872321166356413
 40
0.6485431846530854
 40
0.7095851713071873
 40
0.7704275770452269
 40
0.8312660701158595
 40
0.8925713048449658
 40
0.9553684571231557
 40
1.0
 40
1.0
 40
1.0
 40
1.0
 10
504.6474292772509
 20
-223.9316295695507
 30
0.0
 10
504.6429783028964
 20
-224.1599575705168
 30
0.0
 10
504.6299865809203
 20
-224.8264125243405
 30
0.0
 10
504.4831032366879
 20
-226.0107615875296
 30
0.0
 10
504.1514761006118
 20
-227.4803610754942
 30
0.0
 10
503.6573229892939
 20
-228.9850825092093
 30
0.0
 10
503.0129876638218
 20
-230.4871680290671
 30
0.0
 10
502.2315750792347
 20
-231.9517286758129
 30
0.0
 10
501.3312154531122
 20
-233.3439145073276
 30
0.0
 10
500.3334141845358
 20
-234.6309294861346
 30
0.0
 10
499.2628644546969
 20
-235.7827987018741
 30
0.0
 10
498.1467365354668
 20
-236.7734626701361
 30
0.0
 10
497.0141334563658
 20
-237.5816317356568
 30
0.0
 10
495.8950790957551
 20
-238.1921407443899
 30
0.0
 10
494.8199687045011
 20
-238.5959717982684
 30
0.0
 10
493.8151398423807
 20
-238.7949298612446
 30
0.0
 10
492.9057341936604
 20
-238.7874032632554
 30
0.0
 10
492.170657652087
 20
-238.6340626689741
 30
0.0
 10
491.7858637618934
 20
-238.4025023770758
 30
0.0
 10
491.6260000961927
 20
-238.3063000255392
 30
0.0
  0
SPLINE
  5
12A
330
1F
100
AcDbEntity
  8
0
  6
Continuous
 62
     7
370
    25
100
AcDbSpline
210
0.0
220
0.0
230
1.0
 70
     8
 71
     3
 72
    20
 73
    16
 74
     0
 42
0.00000001
 43
0.00000001
 40
0.0
 40
0.0
 40
0.0
 40
0.0
 40
0.0123736379172344
 40
0.0987998188559033
 40
0.1850801787734721
 40
0.2712095957690432
 40
0.3571974865812156
 40
0.4430625244451389
 40
0.5288276462048017
 40
0.6145162584716499
 40
0.7001498392370167
 40
0.7857467262499584
 40
0.8713217458308363
 40
0.9568863531727223
 40
1.0
 40
1.0
 40
1.0
 40
1.0
 10
488.36987348204
 20
-122.435995951458
 30
0.0
 10
488.4633083004546
 20
-122.5275584317903
 30
0.0
 10
489.2093575380309
 20
-123.2586576066113
 30
0.0
 10
490.4728016639685
 20
-124.822374054662
 30
0.0
 10
492.1439268041291
 20
-127.1323226641443
 30
0.0
 10
493.648342686504
 20
-129.6479717898426
 30
0.0
 10
494.9992099209274
 20
-132.337330086399
 30
0.0
 10
496.1885723815961
 20
-135.1996206320609
 30
0.0
 10
497.2145888570493
 20
-138.2253373828653
 30
0.0
 10
498.0742907167212
 20
-141.4068139014563
 30
0.0
 10
498.7651996469279
 20
-144.7355200734306
 30
0.0
 10
499.2860854866096
 20
-148.2020831973689
 30
0.0
 10
499.6324466168599
 20
-151.7987567871849
 30
0.0
 10
499.7839806849953
 20
-154.8958827638701
 30
0.0
 10
499.7972966844283
 20
-156.8039070167573
 30
0.0
 10
499.8017582098074
 20
-157.4431905095898
 30
0.0
  0
SPLINE
  5
12B
330
1F
100
AcDbEntity
  8
0
  6
Continuous
 62
     7
370
    25
100
AcDbSpline
210
0.0
220
0.0
230
1.0
 70
     8
 71
     3
 72
    49
 73
    45
 74
     0
 42
0.00000001
 43
0.00000001
 40
0.0
 40
0.0
 40
0.0
 40
0.0
 40
0.012828729266004
 40
0.037237187977632
 40
0.0616502908580797
 40
0.0860662460419636
 40
0.1104855238811711
 40
0.1349083244763106
 40
0.1593346496602137
 40
0.1837643588366389
 40
0.208197210990494
 40
0.2326328956900525
 40
0.2570710555341997
 40
0.2815113020743232
 40
0.305953226838906
 40
0.3303964087427705
 40
0.3548404188820908
 40
0.379284823499359
 40
0.4037291709291018
 40
0.4281728912306889
 40
0.4526155446543282
 40
0.4770566918087277
 40
0.5014958956526229
 40
0.5259327248824535
 40
0.550366759356857
 40
0.5747975984073752
 40
0.599224873123979
 40
0.6236482640098916
 40
0.6480675257726783
 40
0.6724825214434084
 40
0.6968932684510889
 40
0.721299999631556
 40
0.7457032422374047
 40
0.770103917514498
 40
0.7945034617854811
 40
0.8189032572018795
 40
0.8433058613644162
 40
0.8677147925962012
 40
0.8921345821685405
 40
0.9165708007954104
 40
0.9410299243791371
 40
0.9655189436668454
 40
0.9900446235785514
 40
1.0
 40
1.0
 40
1.0
 40
1.0
 10
499.8017582098074
 20
-157.4431905095898
 30
0.0
 10
499.7969180311612
 20
-158.1155855285082
 30
0.0
 10
499.7828687330309
 20
-160.0673064819653
 30
0.0
 10
499.6265716654325
 20
-163.3742810195091
 30
0.0
 10
499.275720140601
 20
-167.3839094424346
 30
0.0
 10
498.7492604021565
 20
-171.4707608628931
 30
0.0
 10
498.0514869572972
 20
-175.6214029546987
 30
0.0
 10
497.1833860722285
 20
-179.8246746690666
 30
0.0
 10
496.147459508301
 20
-184.0686238819004
 30
0.0
 10
494.9464278691001
 20
-188.34134005763
 30
0.0
 10
493.5835678850099
 20
-192.6307803029586
 30
0.0
 10
492.0626094050605
 20
-196.9248639602797
 30
0.0
 10
490.3877484207188
 20
-201.2114940903872
 30
0.0
 10
488.5636273214804
 20
-205.4785975316789
 30
0.0
 10
486.5953224705715
 20
-209.7141590759217
 30
0.0
 10
484.4883285041145
 20
-213.9062564057524
 30
0.0
 10
482.2485422977884
 20
-218.0430940774798
 30
0.0
 10
479.8822463665782
 20
-222.1130362262034
 30
0.0
 10
477.3960950618391
 20
-226.1046332858805
 30
0.0
 10
474.7970923181337
 20
-230.0066623037626
 30
0.0
 10
472.0925713725529
 20
-233.8081598819209
 30
0.0
 10
469.2901695463407
 20
-237.4984591798157
 30
0.0
 10
466.3978116199076
 20
-241.067213547116
 30
0.0
 10
463.4236879761007
 20
-244.5044267158604
 30
0.0
 10
460.3762319164694
 20
-247.8004824131794
 30
0.0
 10
457.2640960917644
 20
-250.9461733758943
 30
0.0
 10
454.0961279485789
 20
-253.9327297448518
 30
0.0
 10
450.8813440466704
 20
-256.7518467984432
 30
0.0
 10
447.6289030409401
 20
-259.3957119527959
 30
0.0
 10
444.3480770556847
 20
-261.8570308877584
 30
0.0
 10
441.0482210900965
 20
-264.1290525870246
 30
0.0
 10
437.7387400745744
 20
-266.2055928174287
 30
0.0
 10
434.4290529734953
 20
-268.0810557476713
 30
0.0
 10
431.1285540514218
 20
-269.7504515828577
 30
0.0
 10
427.8466008144433
 20
-271.2093991670816
 30
0.0
 10
424.5924547776941
 20
-272.4541411835526
 30
0.0
 10
421.3752126462849
 20
-273.4815879895119
 30
0.0
 10
418.2037907397857
 20
-274.2891728031238
 30
0.0
 10
415.0866524126747
 20
-274.8753540189097
 30
0.0
 10
412.0326731908174
 20
-275.2375810493113
 30
0.0
 10
409.047736205262
 20
-275.3796985419791
 30
0.0
 10
406.147361324626
 20
-275.2840192173609
 30
0.0
 10
403.8730716368765
 20
-275.0688029427101
 30
0.0
 10
402.6038437813231
 20
-274.8067067644289
 30
0.0
 10
402.2373921000133
 20
-274.7310343114681
 30
0.0
  0
SPLINE
  5
12C
330
1F
100
AcDbEntity
  8
0
  6
Continuous
 62
     7
370
    25
100
AcDbSpline
210
0.0
220
0.0
230
1.0
 70
     8
 71
     3
 72
    61
 73
    57
 74
     0
 42
0.00000001
 43
0.00000001
 40
0.0
 40
0.0
 40
0.0
 40
0.0
 40
0.0005960310764671
 40
0.0198799296562747
 40
0.0391302039968732
 40
0.0583475194079767
 40
0.0775351927999472
 40
0.0966980091105278
 40
0.1158412302473416
 40
0.1349699101179705
 40
0.1540885042876661
 40
0.1732007059240149
 40
0.1923094298927025
 40
0.2114168798028977
 40
0.2305242979971125
 40
0.2496328205953245
 40
0.2687432800419987
 40
0.2878561812276755
 40
0.3069717818908353
 40
0.3260901570983007
 40
0.3452112494361488
 40
0.3643349071744712
 40
0.3834609127086775
 40
0.4025890033568591
 40
0.4217188862731033
 40
0.4408502489085201
 40
0.4599827661566777
 40
0.4791161050737217
 40
0.4982499278684398
 40
0.5173838937103185
 40
0.5365175927630768
 40
0.5556506338905337
 40
0.5747826728664556
 40
0.5939133663958761
 40
0.6130423741471657
 40
0.6321693621044042
 40
0.6512940078165456
 40
0.6704160082928474
 40
0.6895350915061866
 40
0.7086510327311419
 40
0.7277636772575797
 40
0.7468729713631185
 40
0.7659790037494971
 40
0.7850820598464328
 40
0.8041826912717877
 40
0.8232818019826675
 40
0.842380530105404
 40
0.8614803213953399
 40
0.880583553447174
 40
0.8996933571373787
 40
0.9188136778363698
 40
0.9379492436081768
 40
0.9571053726844165
 40
0.9762875428362633
 40
0.9955006611914371
 40
0.9999999999999999
 40
0.9999999999999999
 40
0.9999999999999999
 40
0.9999999999999999
 10
400.3404658711004
 20
-273.6215062070606
 30
0.0
 10
400.3211145170487
 20
-273.6005912789755
 30
0.0
 10
399.6756724042301
 20
-272.902997956218
 30
0.0
 10
398.5364369428121
 20
-271.3457402269092
 30
0.0
 10
396.9411305578423
 20
-268.9422716855547
 30
0.0
 10
395.5178099995202
 20
-266.3327901779332
 30
0.0
 10
394.2489786668327
 20
-263.5544363273977
 30
0.0
 10
393.14349554683
 20
-260.606805177923
 30
0.0
 10
392.2027161997499
 20
-257.4999540317873
 30
0.0
 10
391.4295686975747
 20
-254.2416298176032
 30
0.0
 10
390.8261155206053
 20
-250.8407315390432
 30
0.0
 10
390.3941737175594
 20
-247.3064067257423
 30
0.0
 10
390.1351091195874
 20
-243.6482912175642
 30
0.0
 10
390.0498534225068
 20
-239.8764459870471
 30
0.0
 10
390.138862136404
 20
-236.0013209580243
 30
0.0
 10
390.4021012448891
 20
-232.0337057934011
 30
0.0
 10
390.8390412560143
 20
-227.984665495383
 30
0.0
 10
391.4486531084896
 20
-223.8655258284566
 30
0.0
 10
392.2294058062358
 20
-219.6878400430952
 30
0.0
 10
393.1792682637577
 20
-215.4633478283867
 30
0.0
 10
394.2957142670906
 20
-211.2039351742637
 30
0.0
 10
395.5757299290094
 20
-206.9215952427443
 30
0.0
 10
397.0158231373319
 20
-202.6283902488008
 30
0.0
 10
398.612034636277
 20
-198.3364142705387
 30
0.0
 10
400.3599504816908
 20
-194.0577568910496
 30
0.0
 10
402.2547156883198
 20
-189.8044675778901
 30
0.0
 10
404.2910489416001
 20
-185.5885207230198
 30
0.0
 10
406.463258284111
 20
-181.4217812861623
 30
0.0
 10
408.7652577111664
 20
-177.3159710055571
 30
0.0
 10
411.190581796744
 20
-173.2826398635196
 30
0.0
 10
413.73240410513
 20
-169.3331314798773
 30
0.0
 10
416.3835580834702
 20
-165.4785471551949
 30
0.0
 10
419.1365605141204
 20
-161.7297097970974
 30
0.0
 10
421.9836318696619
 20
-158.0971346395532
 30
0.0
 10
424.9167156718066
 20
-154.5910019999748
 30
0.0
 10
427.9275007439803
 20
-151.2211273663891
 30
0.0
 10
431.0074443153481
 20
-147.9969320728382
 30
0.0
 10
434.1477960529289
 20
-144.9274145822896
 30
0.0
 10
437.3396231415795
 20
-142.0211224062366
 30
0.0
 10
440.5738365847402
 20
-139.2861247155811
 30
0.0
 10
443.8412189650518
 20
-136.7299857401739
 30
0.0
 10
447.1324539726813
 20
-134.3597391425088
 30
0.0
 10
450.43815810141
 20
-132.1818636370008
 30
0.0
 10
453.7489149040337
 20
-130.202260458436
 30
0.0
 10
457.05531245921
 20
-128.4262330172448
 30
0.0
 10
460.347971004189
 20
-126.8584774797061
 30
0.0
 10
463.617574478903
 20
-125.5030695784371
 30
0.0
 10
466.8549274002609
 20
-124.3634592532403
 30
0.0
 10
470.0510406856263
 20
-123.4424180997257
 30
0.0
 10
473.1971055191754
 20
-122.7422452205689
 30
0.0
 10
476.2848568749844
 20
-122.2640915927438
 30
0.0
 10
479.3053644799611
 20
-122.0106652203085
 30
0.0
 10
482.2536971337886
 20
-121.9763459115521
 30
0.0
 10
485.1115226271546
 20
-122.1844113848225
 30
0.0
 10
487.1955391192337
 20
-122.4550339296578
 30
0.0
 10
488.2917274535581
 20
-122.7257005843669
 30
0.0
 10
488.499724570013
 20
-122.7770584413493
 30
0.0
  0
SPLINE
  5
12D
330
1F
100
AcDbEntity
  8
0
  6
Continuous
 62
     7
370
    25
100
AcDbSpline
210
0.0
220
0.0
230
1.0
 70
     8
 71
     3
 72
    14
 73
    10
 74
     0
 42
0.00000001
 43
0.00000001
 40
0.0
 40
0.0
 40
0.0
 40
0.0
 40
0.0532634230592693
 40
0.2528808595228065
 40
0.430889706651533
 40
0.6201064939467043
 40
0.8032280585694963
 40
0.9731718040508996
 40
1.0
 40
1.0
 40
1.0
 40
1.0
 10
527.3620000124291
 20
-135.6132234199488
 30
0.0
 10
527.4331671372686
 20
-135.6421032305515
 30
0.0
 10
527.7710501095878
 20
-135.779217049165
 30
0.0
 10
528.2333797408965
 20
-136.2066694037057
 30
0.0
 10
528.7719629888968
 20
-136.9203211063979
 30
0.0
 10
529.1711837180732
 20
-137.8277686954225
 30
0.0
 10
529.4242488789854
 20
-138.905007496695
 30
0.0
 10
529.4970246969066
 20
-139.7642055144047
 30
0.0
 10
529.4998568759017
 20
-140.2344995349493
 30
0.0
 10
529.5002430196399
 20
-140.2986201613208
 30
0.0
  0
SPLINE
  5
12E
330
1F
100
AcDbEntity
  8
0
  6
Continuous
 62
     7
370
    25
100
AcDbSpline
210
0.0
220
0.0
230
1.0
 70
     8
 71
     3
 72
    24
 73
    20
 74
     0
 42
0.00000001
 43
0.00000001
 40
0.0
 40
0.0
 40
0.0
 40
0.0
 40
0.0319425658033184
 40
0.0932355257672845
 40
0.154722820588839
 40
0.2163868675723854
 40
0.2781985543836307
 40
0.3401029521313693
 40
0.4020362224311987
 40
0.4639181712433181
 40
0.5256721111960377
 40
0.5872321166356527
 40
0.6485431846530963
 40
0.7095851713071958
 40
0.7704275770452351
 40
0.83126607011587
 40
0.8925713048449739
 40
0.9553684571231655
 40
1.0
 40
1.0
 40
1.0
 40
1.0
 10
529.5002430196399
 20
-140.2986201613208
 30
0.0
 10
529.4957920452854
 20
-140.5269481622869
 30
0.0
 10
529.4828003233092
 20
-141.1934031161107
 30
0.0
 10
529.3359169790767
 20
-142.3777521792998
 30
0.0
 10
529.0042898430007
 20
-143.8473516672645
 30
0.0
 10
528.5101367316828
 20
-145.3520731009797
 30
0.0
 10
527.8658014062107
 20
-146.8541586208375
 30
0.0
 10
527.0843888216235
 20
-148.3187192675834
 30
0.0
 10
526.184029195501
 20
-149.7109050990981
 30
0.0
 10
525.1862279269246
 20
-150.997920077905
 30
0.0
 10
524.1156781970856
 20
-152.1497892936445
 30
0.0
 10
522.9995502778556
 20
-153.1404532619065
 30
0.0
 10
521.8669471987545
 20
-153.9486223274271
 30
0.0
 10
520.7478928381439
 20
-154.5591313361601
 30
0.0
 10
519.6727824468899
 20
-154.9629623900385
 30
0.0
 10
518.6679535847695
 20
-155.1619204530147
 30
0.0
 10
517.7585479360491
 20
-155.1543938550255
 30
0.0
 10
517.0234713944758
 20
-155.0010532607442
 30
0.0
 10
516.6386775042823
 20
-154.7694929688459
 30
0.0
 10
516.4788138385816
 20
-154.6732906173092
 30
0.0
  0
SPLINE
  5
12F
330
1F
100
AcDbEntity
  8
0
  6
Continuous
 62
     7
370
    25
100
AcDbSpline
210
0.0
220
0.0
230
1.0
 70
     8
 71
     3
 72
    14
 73
    10
 74
     0
 42
0.00000001
 43
0.00000001
 40
0.0
 40
0.0
 40
0.0
 40
0.0
 40
0.0532634230592698
 40
0.2528808595228021
 40
0.4308897066515297
 40
0.6201064939466968
 40
0.8032280585694745
 40
0.9731718040508842
 40
1.0
 40
1.0
 40
1.0
 40
1.0
 10
442.5091862700381
 20
-282.582607555602
 30
0.0
 10
442.5803533948775
 20
-282.6114873662048
 30
0.0
 10
442.9182363671966
 20
-282.7486011848182
 30
0.0
 10
443.3805659985052
 20
-283.1760535393589
 30
0.0
 10
443.9191492465056
 20
-283.8897052420511
 30
0.0
 10
444.3183699756819
 20
-284.7971528310756
 30
0.0
 10
444.5714351365941
 20
-285.8743916323481
 30
0.0
 10
444.6442109545154
 20
-286.7335896500578
 30
0.0
 10
444.6470431335105
 20
-287.2038836706025
 30
0.0
 10
444.6474292772487
 20
-287.268004296974
 30
0.0
  0
SPLINE
  5
130
330
1F
100
AcDbEntity
  8
0
  6
Continuous
 62
     7
370
    25
100
AcDbSpline
210
0.0
220
0.0
230
1.0
 70
     8
 71
     3
 72
    24
 73
    20
 74
     0
 42
0.00000001
 43
0.00000001
 40
0.0
 40
0.0
 40
0.0
 40
0.0
 40
0.0319425658033188
 40
0.0932355257672868
 40
0.1547228205888452
 40
0.2163868675723889
 40
0.2781985543836321
 40
0.3401029521313688
 40
0.4020362224311972
 40
0.463918171243314
 40
0.5256721111960343
 40
0.5872321166356593
 40
0.6485431846530944
 40
0.7095851713071951
 40
0.7704275770452343
 40
0.8312660701158684
 40
0.8925713048449734
 40
0.9553684571231567
 40
1.0
 40
1.0
 40
1.0
 40
1.0
 10
444.6474292772487
 20
-287.268004296974
 30
0.0
 10
444.6429783028942
 20
-287.4963322979401
 30
0.0
 10
444.629986580918
 20
-288.1627872517639
 30
0.0
 10
444.4831032366856
 20
-289.347136314953
 30
0.0
 10
444.1514761006095
 20
-290.8167358029178
 30
0.0
 10
443.6573229892915
 20
-292.3214572366329
 30
0.0
 10
443.0129876638194
 20
-293.8235427564907
 30
0.0
 10
442.2315750792324
 20
-295.2881034032365
 30
0.0
 10
441.3312154531098
 20
-296.6802892347512
 30
0.0
 10
440.3334141845334
 20
-297.9673042135581
 30
0.0
 10
439.2628644546944
 20
-299.1191734292975
 30
0.0
 10
438.1467365354643
 20
-300.1098373975597
 30
0.0
 10
437.0141334563633
 20
-300.9180064630801
 30
0.0
 10
435.8950790957527
 20
-301.5285154718133
 30
0.0
 10
434.8199687044986
 20
-301.9323465256917
 30
0.0
 10
433.8151398423783
 20
-302.1313045886679
 30
0.0
 10
432.905734193658
 20
-302.1237779906786
 30
0.0
 10
432.1706576520847
 20
-301.9704373963973
 30
0.0
 10
431.7858637618911
 20
-301.7388771044991
 30
0.0
 10
431.6260000961904
 20
-301.6426747529624
 30
0.0
  0
SPLINE
  5
131
330
1F
100
AcDbEntity
  8
0
  6
Continuous
 62
     7
370
    25
100
AcDbSpline
210
0.0
220
0.0
230
1.0
 70
     8
 71
     3
 72
    14
 73
    10
 74
     0
 42
0.00000001
 43
0.00000001
 40
0.0
 40
0.0
 40
0.0
 40
0.0
 40
0.0532634230592636
 40
0.2528808595227801
 40
0.430889706651507
 40
0.6201064939466668
 40
0.8032280585694461
 40
0.9731718040508601
 40
1.0
 40
1.0
 40
1.0
 40
1.0
 10
502.5091862700459
 20
-80.67466198017682
 30
0.0
 10
502.5803533948854
 20
-80.70354179077954
 30
0.0
 10
502.9182363672044
 20
-80.84065560939304
 30
0.0
 10
503.3805659985131
 20
-81.26810796393369
 30
0.0
 10
503.9191492465135
 20
-81.9817596666258
 30
0.0
 10
504.3183699756898
 20
-82.88920725565029
 30
0.0
 10
504.571435136602
 20
-83.96644605692268
 30
0.0
 10
504.6442109545233
 20
-84.82564407463256
 30
0.0
 10
504.6470431335184
 20
-85.29593809517722
 30
0.0
 10
504.6474292772566
 20
-85.36005872154885
 30
0.0
  0
SPLINE
  5
132
330
1F
100
AcDbEntity
  8
0
  6
Continuous
 62
     7
370
    25
100
AcDbSpline
210
0.0
220
0.0
230
1.0
 70
     8
 71
     3
 72
    24
 73
    20
 74
     0
 42
0.00000001
 43
0.00000001
 40
0.0
 40
0.0
 40
0.0
 40
0.0
 40
0.0319425658033188
 40
0.0932355257672847
 40
0.1547228205888468
 40
0.2163868675723906
 40
0.2781985543836351
 40
0.340102952131375
 40
0.4020362224311987
 40
0.4639181712433227
 40
0.5256721111960379
 40
0.5872321166356536
 40
0.6485431846530965
 40
0.7095851713071987
 40
0.7704275770452358
 40
0.831266070115869
 40
0.8925713048449716
 40
0.9553684571231649
 40
1.0
 40
1.0
 40
1.0
 40
1.0
 10
504.6474292772566
 20
-85.36005872154885
 30
0.0
 10
504.6429783029021
 20
-85.5883867225149
 30
0.0
 10
504.629986580926
 20
-86.25484167633869
 30
0.0
 10
504.4831032366935
 20
-87.43919073952786
 30
0.0
 10
504.1514761006174
 20
-88.90879022749269
 30
0.0
 10
503.6573229892994
 20
-90.41351166120783
 30
0.0
 10
503.0129876638274
 20
-91.91559718106554
 30
0.0
 10
502.2315750792402
 20
-93.38015782781147
 30
0.0
 10
501.3312154531176
 20
-94.77234365932607
 30
0.0
 10
500.3334141845413
 20
-96.059358638133
 30
0.0
 10
499.2628644547023
 20
-97.21122785387249
 30
0.0
 10
498.1467365354723
 20
-98.20189182213443
 30
0.0
 10
497.0141334563712
 20
-99.01006088765504
 30
0.0
 10
495.8950790957606
 20
-99.6205698963881
 30
0.0
 10
494.8199687045065
 20
-100.0244009502665
 30
0.0
 10
493.8151398423862
 20
-100.2233590132427
 30
0.0
 10
492.9057341936659
 20
-100.2158324152535
 30
0.0
 10
492.1706576520926
 20
-100.0624918209722
 30
0.0
 10
491.785863761899
 20
-99.83093152907392
 30
0.0
 10
491.6260000961983
 20
-99.73472917753726
 30
0.0
  0
SPLINE
  5
133
330
1F
100
AcDbEntity
  8
0
  6
Continuous
 62
     7
370
    25
100
AcDbSpline
210
0.0
220
0.0
230
1.0
 70
     8
 71
     3
 72
    14
 73
    10
 74
     0
 42
0.00000001
 43
0.00000001
 40
0.0
 40
0.0
 40
0.0
 40
0.0
 40
0.0532634230592419
 40
0.2528808595227738
 40
0.4308897066515002
 40
0.6201064939466591
 40
0.8032280585694391
 40
0.9731718040508499
 40
1.0
 40
1.0
 40
1.0
 40
1.0
 10
382.5091862700381
 20
-288.5207582784387
 30
0.0
 10
382.5803533948774
 20
-288.5496380890414
 30
0.0
 10
382.9182363671965
 20
-288.6867519076548
 30
0.0
 10
383.3805659985052
 20
-289.1142042621955
 30
0.0
 10
383.9191492465056
 20
-289.8278559648876
 30
0.0
 10
384.3183699756819
 20
-290.7353035539121
 30
0.0
 10
384.5714351365942
 20
-291.8125423551846
 30
0.0
 10
384.6442109545154
 20
-292.6717403728944
 30
0.0
 10
384.6470431335106
 20
-293.1420343934391
 30
0.0
 10
384.6474292772488
 20
-293.2061550198108
 30
0.0
  0
SPLINE
  5
134
330
1F
100
AcDbEntity
  8
0
  6
Continuous
 62
     7
370
    25
100
AcDbSpline
210
0.0
220
0.0
230
1.0
 70
     8
 71
     3
 72
    24
 73
    20
 74
     0
 42
0.00000001
 43
0.00000001
 40
0.0
 40
0.0
 40
0.0
 40
0.0
 40
0.031942565803319
 40
0.0932355257672732
 40
0.1547228205888329
 40
0.2163868675723778
 40
0.278198554383622
 40
0.340102952131361
 40
0.4020362224311841
 40
0.4639181712433079
 40
0.5256721111960273
 40
0.5872321166356418
 40
0.6485431846530859
 40
0.7095851713071879
 40
0.7704275770452276
 40
0.8312660701158602
 40
0.8925713048449665
 40
0.9553684571231563
 40
1.0
 40
1.0
 40
1.0
 40
1.0
 10
384.6474292772488
 20
-293.2061550198108
 30
0.0
 10
384.6429783028943
 20
-293.4344830207768
 30
0.0
 10
384.6299865809181
 20
-294.1009379746005
 30
0.0
 10
384.4831032366857
 20
-295.2852870377895
 30
0.0
 10
384.1514761006097
 20
-296.7548865257542
 30
0.0
 10
383.6573229892917
 20
-298.2596079594693
 30
0.0
 10
383.0129876638197
 20
-299.7616934793271
 30
0.0
 10
382.2315750792326
 20
-301.2262541260729
 30
0.0
 10
381.3312154531101
 20
-302.6184399575876
 30
0.0
 10
380.3334141845337
 20
-303.9054549363946
 30
0.0
 10
379.2628644546947
 20
-305.0573241521341
 30
0.0
 10
378.1467365354647
 20
-306.0479881203962
 30
0.0
 10
377.0141334563637
 20
-306.8561571859167
 30
0.0
 10
375.895079095753
 20
-307.4666661946499
 30
0.0
 10
374.819968704499
 20
-307.8704972485284
 30
0.0
 10
373.8151398423786
 20
-308.0694553115047
 30
0.0
 10
372.9057341936582
 20
-308.0619287135153
 30
0.0
 10
372.1706576520849
 20
-307.9085881192341
 30
0.0
 10
371.7858637618913
 20
-307.6770278273358
 30
0.0
 10
371.6260000961906
 20
-307.5808254757992
 30
0.0
  0
SPLINE
  5
135
330
1F
100
AcDbEntity
  8
0
  6
Continuous
 62
     7
370
    25
100
AcDbSpline
210
0.0
220
0.0
230
1.0
 70
     8
 71
     3
 72
    14
 73
    10
 74
     0
 42
0.00000001
 43
0.00000001
 40
0.0
 40
0.0
 40
0.0
 40
0.0
 40
0.0532634230592734
 40
0.2528808595228064
 40
0.430889706651533
 40
0.6201064939466866
 40
0.8032280585694674
 40
0.973171804050877
 40
1.0
 40
1.0
 40
1.0
 40
1.0
 10
442.509186270046
 20
-86.61281270301353
 30
0.0
 10
442.5803533948855
 20
-86.6416925136163
 30
0.0
 10
442.9182363672046
 20
-86.77880633222978
 30
0.0
 10
443.3805659985132
 20
-87.20625868677044
 30
0.0
 10
443.9191492465137
 20
-87.91991038946267
 30
0.0
 10
444.31836997569
 20
-88.82735797848716
 30
0.0
 10
444.5714351366022
 20
-89.90459677975954
 30
0.0
 10
444.6442109545234
 20
-90.76379479746932
 30
0.0
 10
444.6470431335185
 20
-91.23408881801399
 30
0.0
 10
444.6474292772568
 20
-91.29820944438555
 30
0.0
  0
SPLINE
  5
136
330
1F
100
AcDbEntity
  8
0
  6
Continuous
 62
     7
370
    25
100
AcDbSpline
210
0.0
220
0.0
230
1.0
 70
     8
 71
     3
 72
    24
 73
    20
 74
     0
 42
0.00000001
 43
0.00000001
 40
0.0
 40
0.0
 40
0.0
 40
0.0
 40
0.0319425658033185
 40
0.0932355257672862
 40
0.1547228205888441
 40
0.2163868675723879
 40
0.2781985543836314
 40
0.3401029521313682
 40
0.4020362224311931
 40
0.4639181712433152
 40
0.5256721111960325
 40
0.5872321166356465
 40
0.648543184653092
 40
0.7095851713071927
 40
0.7704275770452319
 40
0.831266070115866
 40
0.8925713048449704
 40
0.9553684571231649
 40
1.0
 40
1.0
 40
1.0
 40
1.0
 10
444.6474292772568
 20
-91.29820944438556
 30
0.0
 10
444.6429783029022
 20
-91.52653744535162
 30
0.0
 10
444.6299865809261
 20
-92.19299239917541
 30
0.0
 10
444.4831032366936
 20
-93.37734146236464
 30
0.0
 10
444.1514761006176
 20
-94.84694095032935
 30
0.0
 10
443.6573229892995
 20
-96.35166238404453
 30
0.0
 10
443.0129876638275
 20
-97.85374790390223
 30
0.0
 10
442.2315750792404
 20
-99.3183085506481
 30
0.0
 10
441.3312154531178
 20
-100.7104943821627
 30
0.0
 10
440.3334141845414
 20
-101.9975093609697
 30
0.0
 10
439.2628644547025
 20
-103.1493785767091
 30
0.0
 10
438.1467365354724
 20
-104.1400425449712
 30
0.0
 10
437.0141334563713
 20
-104.9482116104918
 30
0.0
 10
435.8950790957607
 20
-105.5587206192248
 30
0.0
 10
434.8199687045066
 20
-105.9625516731033
 30
0.0
 10
433.8151398423863
 20
-106.1615097360794
 30
0.0
 10
432.905734193666
 20
-106.1539831380902
 30
0.0
 10
432.1706576520926
 20
-106.0006425438089
 30
0.0
 10
431.785863761899
 20
-105.7690822519106
 30
0.0
 10
431.6260000961984
 20
-105.6728799003739
 30
0.0
  0
SPLINE
  5
137
330
1F
100
AcDbEntity
  8
0
  6
Continuous
 62
     7
370
    25
100
AcDbSpline
210
0.0
220
0.0
230
1.0
 70
     8
 71
     3
 72
    14
 73
    10
 74
     0
 42
0.00000001
 43
0.00000001
 40
0.0
 40
0.0
 40
0.0
 40
0.0
 40
0.0532634230592328
 40
0.2528808595227475
 40
0.4308897066514743
 40
0.6201064939466324
 40
0.8032280585693984
 40
0.9731718040508117
 40
1.0
 40
1.0
 40
1.0
 40
1.0
 10
357.6563725276547
 20
-233.5821968386666
 30
0.0
 10
357.727539652494
 20
-233.6110766492694
 30
0.0
 10
358.0654226248132
 20
-233.7481904678828
 30
0.0
 10
358.5277522561217
 20
-234.1756428224234
 30
0.0
 10
359.0663355041223
 20
-234.8892945251155
 30
0.0
 10
359.4655562332986
 20
-235.7967421141399
 30
0.0
 10
359.7186213942108
 20
-236.8739809154123
 30
0.0
 10
359.7913972121322
 20
-237.7331789331221
 30
0.0
 10
359.7942293911273
 20
-238.203472953667
 30
0.0
 10
359.7946155348654
 20
-238.2675935800387
 30
0.0
  0
SPLINE
  5
138
330
1F
100
AcDbEntity
  8
0
  6
Continuous
 62
     7
370
    25
100
AcDbSpline
210
0.0
220
0.0
230
1.0
 70
     8
 71
     3
 72
    24
 73
    20
 74
     0
 42
0.00000001
 43
0.00000001
 40
0.0
 40
0.0
 40
0.0
 40
0.0
 40
0.0319425658033186
 40
0.093235525767285
 40
0.1547228205888433
 40
0.2163868675723867
 40
0.2781985543836321
 40
0.340102952131372
 40
0.4020362224311954
 40
0.4639181712433164
 40
0.5256721111960365
 40
0.5872321166356519
 40
0.648543184653096
 40
0.7095851713071963
 40
0.7704275770452355
 40
0.8312660701158703
 40
0.8925713048449745
 40
0.9553684571231625
 40
0.9999999999999999
 40
0.9999999999999999
 40
0.9999999999999999
 40
0.9999999999999999
 10
359.7946155348654
 20
-238.2675935800387
 30
0.0
 10
359.790164560511
 20
-238.4959215810048
 30
0.0
 10
359.7771728385349
 20
-239.1623765348286
 30
0.0
 10
359.6302894943024
 20
-240.3467255980178
 30
0.0
 10
359.2986623582264
 20
-241.8163250859825
 30
0.0
 10
358.8045092469083
 20
-243.3210465196976
 30
0.0
 10
358.1601739214363
 20
-244.8231320395554
 30
0.0
 10
357.3787613368492
 20
-246.2876926863012
 30
0.0
 10
356.4784017107265
 20
-247.6798785178159
 30
0.0
 10
355.4806004421503
 20
-248.9668934966228
 30
0.0
 10
354.4100507123113
 20
-250.1187627123623
 30
0.0
 10
353.2939227930812
 20
-251.1094266806243
 30
0.0
 10
352.16131971398
 20
-251.9175957461449
 30
0.0
 10
351.0422653533695
 20
-252.528104754878
 30
0.0
 10
349.9671549621154
 20
-252.9319358087564
 30
0.0
 10
348.9623260999951
 20
-253.1308938717326
 30
0.0
 10
348.0529204512747
 20
-253.1233672737434
 30
0.0
 10
347.3178439097015
 20
-252.9700266794621
 30
0.0
 10
346.9330500195079
 20
-252.7384663875638
 30
0.0
 10
346.7731863538073
 20
-252.6422640360271
 30
0.0
  0
SPLINE
  5
139
330
1F
100
AcDbEntity
  8
0
  6
Continuous
 62
     7
370
    25
100
AcDbSpline
210
0.0
220
0.0
230
1.0
 70
     8
 71
     3
 72
    14
 73
    10
 74
     0
 42
0.00000001
 43
0.00000001
 40
0.0
 40
0.0
 40
0.0
 40
0.0
 40
0.0532634230592348
 40
0.2528808595227472
 40
0.430889706651474
 40
0.6201064939466322
 40
0.8032280585694104
 40
0.9731718040508206
 40
0.9999999999999999
 40
0.9999999999999999
 40
0.9999999999999999
 40
0.9999999999999999
 10
382.5091862700438
 20
-149.9491874304368
 30
0.0
 10
382.5803533948831
 20
-149.9780672410396
 30
0.0
 10
382.9182363672022
 20
-150.115181059653
 30
0.0
 10
383.3805659985108
 20
-150.5426334141936
 30
0.0
 10
383.9191492465112
 20
-151.2562851168857
 30
0.0
 10
384.3183699756876
 20
-152.1637327059101
 30
0.0
 10
384.5714351365999
 20
-153.2409715071825
 30
0.0
 10
384.6442109545211
 20
-154.1001695248924
 30
0.0
 10
384.6470431335162
 20
-154.5704635454372
 30
0.0
 10
384.6474292772545
 20
-154.6345841718089
 30
0.0
  0
SPLINE
  5
13A
330
1F
100
AcDbEntity
  8
0
  6
Continuous
 62
     7
370
    25
100
AcDbSpline
210
0.0
220
0.0
230
1.0
 70
     8
 71
     3
 72
    24
 73
    20
 74
     0
 42
0.00000001
 43
0.00000001
 40
0.0
 40
0.0
 40
0.0
 40
0.0
 40
0.031942565803319
 40
0.0932355257672732
 40
0.1547228205888329
 40
0.2163868675723777
 40
0.2781985543836219
 40
0.3401029521313609
 40
0.4020362224311839
 40
0.4639181712433077
 40
0.5256721111960271
 40
0.5872321166356416
 40
0.6485431846530857
 40
0.7095851713071876
 40
0.7704275770452272
 40
0.8312660701158598
 40
0.8925713048449662
 40
0.955368457123156
 40
1.0
 40
1.0
 40
1.0
 40
1.0
 10
384.6474292772545
 20
-154.6345841718089
 30
0.0
 10
384.6429783029
 20
-154.8629121727749
 30
0.0
 10
384.6299865809238
 20
-155.5293671265987
 30
0.0
 10
384.4831032366914
 20
-156.7137161897877
 30
0.0
 10
384.1514761006154
 20
-158.1833156777524
 30
0.0
 10
383.6573229892974
 20
-159.6880371114675
 30
0.0
 10
383.0129876638254
 20
-161.1901226313253
 30
0.0
 10
382.2315750792383
 20
-162.6546832780711
 30
0.0
 10
381.3312154531157
 20
-164.0468691095858
 30
0.0
 10
380.3334141845394
 20
-165.3338840883927
 30
0.0
 10
379.2628644547004
 20
-166.4857533041323
 30
0.0
 10
378.1467365354704
 20
-167.4764172723943
 30
0.0
 10
377.0141334563693
 20
-168.2845863379149
 30
0.0
 10
375.8950790957587
 20
-168.895095346648
 30
0.0
 10
374.8199687045046
 20
-169.2989264005265
 30
0.0
 10
373.8151398423842
 20
-169.4978844635027
 30
0.0
 10
372.9057341936639
 20
-169.4903578655135
 30
0.0
 10
372.1706576520905
 20
-169.3370172712322
 30
0.0
 10
371.7858637618969
 20
-169.105456979334
 30
0.0
 10
371.6260000961963
 20
-169.0092546277974
 30
0.0
  0
LWPOLYLINE
  5
13B
330
1F
100
AcDbEntity
  8
0
  6
Continuous
 62
     7
370
    25
100
AcDbPolyline
 90
      143
 70
   128
 43
0.0
 10
536.5106506597
 20
-136.0124775742
 10
536.4127188826
 20
-130.9582682879
 10
536.1191152572
 20
-126.0270224767
 10
535.6304145265
 20
-121.2283932859
 10
534.947573345
 20
-116.5717742575
 10
534.0719284065
 20
-112.0662809419
 10
533.0051938271
 20
-107.7207330538
 10
531.7494577897
 20
-103.5436372074
 10
530.3071784567
 20
-99.5431702639
 10
528.6811791575
 20
-95.7271633252
 10
526.8746428622
 20
-92.103086404
 10
524.8911059504
 20
-88.6780338012
 10
522.7344512887
 20
-85.458710218
 10
520.40890063
 20
-82.4514176316
 10
517.9190063487
 20
-79.6620429584
 10
515.26964253
 20
-77.0960465303
 10
512.4659954279
 20
-74.7584514058
 10
509.5135533132
 20
-72.6538335372
 10
506.4180957301
 20
-70.7863128127
 10
503.1856821822
 20
-69.1595449919
 10
499.8226402707
 20
-67.7767145492
 10
496.3355533081
 20
-66.6405284402
 10
492.7312474309
 20
-65.7532108023
 10
489.0167782371
 20
-65.1164986017
 10
485.1994169746
 20
-64.7316382324
 10
481.2866363074
 20
-64.5993830766
 10
477.2860956873
 20
-64.7199920299
 10
473.2056263604
 20
-65.0932289947
 10
469.0532160372
 20
-65.7183633421
 10
464.8369932557
 20
-66.5941713423
 10
460.5652114701
 20
-67.71893856
 10
456.2462328938
 20
-69.0904632105
 10
451.8885121302
 20
-70.7060604699
 10
447.5005796224
 20
-72.5625677307
 10
443.0910249543
 20
-74.6563507927
 10
438.6684800362
 20
-76.9833109774
 10
434.2416022075
 20
-79.5388931508
 10
429.8190572894
 20
-82.3180946409
 10
425.4095026212
 20
-85.3154750302
 10
421.0215701134
 20
-88.5251668058
 10
416.6638493499
 20
-91.9408868454
 10
412.3448707736
 20
-95.5559487166
 10
408.073088988
 20
-99.3632757661
 10
403.8568662065
 20
-103.3554149722
 10
399.7044558832
 20
-107.5245515351
 10
395.6239865564
 20
-111.8625241742
 10
391.6234459363
 20
-116.3608411042
 10
387.710665269
 20
-121.0106966586
 10
383.8933040065
 20
-125.8029885268
 10
380.1788348128
 20
-130.7283355724
 10
376.5745289356
 20
-135.7770961972
 10
373.087441973
 20
-140.9393872152
 10
369.7244000615
 20
-146.2051031994
 10
366.4919865135
 20
-151.5639362634
 10
363.3965289304
 20
-157.0053962399
 10
360.4440868158
 20
-162.5188312154
 10
357.6404397137
 20
-168.093448382
 10
354.9910758949
 20
-173.7183351649
 10
352.5011816137
 20
-179.382480584
 10
350.1756309549
 20
-185.0747968087
 10
348.0189762932
 20
-190.7841408627
 10
346.0354393814
 20
-196.4993364368
 10
344.2289030861
 20
-202.2091957674
 10
342.602903787
 20
-207.9025415367
 10
341.1606244539
 20
-213.5682287529
 10
339.9048884166
 20
-219.1951665673
 10
338.8381538371
 20
-224.7723399849
 10
337.9625088986
 20
-230.2888314268
 10
337.2796677172
 20
-235.7338421019
 10
336.7909669865
 20
-241.0967131461
 10
336.4973633611
 20
-246.3669464877
 10
336.3994315839
 20
-251.5342253972
 10
336.4973633611
 20
-256.5884346835
 10
336.7909669865
 20
-261.5196804947
 10
337.2796677172
 20
-266.3183096855
 10
337.9625088986
 20
-270.9749287139
 10
338.8381538371
 20
-275.4804220295
 10
339.9048884166
 20
-279.8259699176
 10
341.1606244539
 20
-284.003065764
 10
342.602903787
 20
-288.0035327075
 10
344.2289030861
 20
-291.8195396462
 10
346.0354393814
 20
-295.4436165674
 10
348.0189762932
 20
-298.8686691702
 10
350.1756309549
 20
-302.0879927534
 10
352.5011816137
 20
-305.0952853398
 10
354.9910758949
 20
-307.884660013
 10
357.6404397137
 20
-310.4506564411
 10
360.4440868158
 20
-312.7882515656
 10
363.3965289304
 20
-314.8928694342
 10
366.4919865135
 20
-316.7603901587
 10
369.7244000615
 20
-318.3871579795
 10
373.087441973
 20
-319.7699884222
 10
376.5745289356
 20
-320.9061745312
 10
380.1788348128
 20
-321.7934921691
 10
383.8933040065
 20
-322.4302043697
 10
387.710665269
 20
-322.815064739
 10
391.6234459363
 20
-322.9473198948
 10
395.6239865564
 20
-322.8267109415
 10
399.7044558832
 20
-322.4534739767
 10
403.8568662065
 20
-321.8283396293
 10
408.073088988
 20
-320.9525316291
 10
412.3448707736
 20
-319.8277644114
 10
416.6638493499
 20
-318.4562397609
 10
421.0215701134
 20
-316.8406425015
 10
425.4095026212
 20
-314.9841352407
 10
429.8190572894
 20
-312.8903521787
 10
434.2416022075
 20
-310.563391994
 10
438.6684800362
 20
-308.0078098206
 10
443.0910249543
 20
-305.2286083305
 10
447.5005796224
 20
-302.2312279412
 10
451.8885121302
 20
-299.0215361656
 10
456.2462328938
 20
-295.605816126
 10
460.5652114701
 20
-291.9907542548
 10
464.8369932557
 20
-288.1834272053
 10
469.0532160372
 20
-284.1912879992
 10
473.2056263604
 20
-280.0221514363
 10
477.2860956873
 20
-275.6841787972
 10
481.2866363074
 20
-271.1858618672
 10
485.1994169746
 20
-266.5360063128
 10
489.0167782371
 20
-261.7437144446
 10
492.7312474309
 20
-256.818367399
 10
496.3355533081
 20
-251.7696067742
 10
499.8226402707
 20
-246.6073157562
 10
503.1856821822
 20
-241.341599772
 10
506.4180957301
 20
-235.982766708
 10
509.5135533132
 20
-230.5413067315
 10
512.4659954279
 20
-225.027871756
 10
515.26964253
 20
-219.4532545894
 10
517.9190063487
 20
-213.8283678065
 10
520.40890063
 20
-208.1642223874
 10
522.7344512887
 20
-202.4719061627
 10
524.8911059504
 20
-196.7625621087
 10
526.8746428622
 20
-191.0473665346
 10
528.6811791576
 20
-185.337507204
 10
530.3071784567
 20
-179.6441614347
 10
531.7494577897
 20
-173.9784742185
 10
533.0051938271
 20
-168.3515364041
 10
534.0719284065
 20
-162.7743629865
 10
534.947573345
 20
-157.2578715446
 10
535.6304145265
 20
-151.8128608695
 10
536.1191152572
 20
-146.4499898253
 10
536.4127188826
 20
-141.1797564837
 10
536.5106506597
 20
-136.0124775742
  0
ARC
  5
13C
330
1F
100
AcDbEntity
  8
0
  6
Continuous
 62
     7
370
    25
100
AcDbCircle
 10
390.2639200999
 20
-275.4057987442
 30
0.0
 40
48.69284924714684
100
AcDbArc
 50
219.9954526266
 51
258.703432217
  0
ARC
  5
13D
330
1F
100
AcDbEntity
  8
0
  6
Continuous
 62
     7
370
    25
100
AcDbCircle
 10
484.0257231297
 20
-113.0042998024
 30
0.0
 40
48.7496912560921
100
AcDbArc
 50
39.9893257703
 51
79.882229621
  0
ARC
  5
13E
330
1F
100
AcDbEntity
  8
0
  6
Continuous
 62
     7
370
    25
100
AcDbCircle
 10
499.2811850648
 20
-122.2595977651
 30
0.0
 40
49.15522815763677
100
AcDbArc
 50
40.4465630798
 51
59.8600488215
  0
ARC
  5
13F
330
1F
100
AcDbEntity
  8
0
  6
Continuous
 62
     7
370
    25
100
AcDbCircle
 10
405.9971108472
 20
-283.8036728605
 30
0.0
 40
49.30182967505803
100
AcDbArc
 50
240.1717409608
 51
259.7798236698
  0
LWPOLYLINE
  5
140
330
1F
100
AcDbEntity
  8
0
  6
Continuous
 62
     7
370
    25
100
AcDbPolyline
 90
       42
 70
   128
 43
0.0
 10
360.0875087537
 20
-237.8593895241
 10
359.9880648519
 20
-239.4125297123
 10
359.6920640272
 20
-241.044081096
 10
359.2064442882
 20
-242.7158014936
 10
358.5425881498
 20
-244.3885071958
 10
357.7160558374
 20
-246.0229913987
 10
356.7462205677
 20
-247.580943178
 10
355.6558144576
 20
-249.0258454643
 10
354.470395702
 20
-250.3238309728
 10
353.2177495119
 20
-251.4444760232
 10
351.9272368522
 20
-252.3615136453
 10
350.629106246
 20
-253.0534492546
 10
349.3537847743
 20
-253.5040644668
 10
348.1311648917
 20
-253.7027972433
 10
346.9899037718
 20
-253.6449894562
 10
345.956751608
 20
-253.3319960711
 10
345.0559246115
 20
-252.7711533876
 10
344.3085374034
 20
-251.9756070828
 10
343.7321081065
 20
-250.964004088
 10
343.340147735
 20
-249.7600555199
 10
343.1418435078
 20
-248.3919809124
 10
343.1418435078
 20
-246.891846775
 10
343.340147735
 20
-245.2948149802
 10
343.7321081065
 20
-243.6383185999
 10
344.3085374034
 20
-241.9611845051
 10
345.0559246115
 20
-240.3027232976
 10
345.956751608
 20
-238.7018079025
 10
346.9899037718
 20
-237.1959624197
 10
348.1311648917
 20
-235.820482591
 10
349.3537847743
 20
-234.6076084978
 10
350.629106246
 20
-233.585768881
 10
351.9272368522
 20
-232.7789147949
 10
353.2177495119
 20
-232.2059582157
 10
354.470395702
 20
-231.8803287598
 10
355.6558144576
 20
-231.8096589057
 10
356.7462205677
 20
-231.9956050949
 10
357.7160558374
 20
-232.4338089063
 10
358.5425881498
 20
-233.113999214
 10
359.2064442882
 20
-234.0202329337
 10
359.6920640272
 20
-235.1312687151
 10
359.9880648519
 20
-236.421064821
 10
360.0875087537
 20
-237.8593895241
  0
LWPOLYLINE
  5
141
330
1F
100
AcDbEntity
  8
0
  6
Continuous
 62
     7
370
    25
100
AcDbPolyline
 90
       42
 70
   128
 43
0.0
 10
504.9403224961
 20
-223.5234255136
 10
504.8408785943
 20
-225.0765657018
 10
504.5448777696
 20
-226.7081170855
 10
504.0592580305
 20
-228.3798374831
 10
503.3954018922
 20
-230.0525431853
 10
502.5688695797
 20
-231.6870273882
 10
501.5990343101
 20
-233.2449791675
 10
500.5086282
 20
-234.6898814538
 10
499.3232094444
 20
-235.9878669623
 10
498.0705632542
 20
-237.1085120127
 10
496.7800505946
 20
-238.0255496348
 10
495.4819199884
 20
-238.7174852441
 10
494.2065985167
 20
-239.1681004563
 10
492.9839786341
 20
-239.3668332328
 10
491.8427175142
 20
-239.3090254457
 10
490.8095653504
 20
-238.9960320606
 10
489.9087383539
 20
-238.4351893771
 10
489.1613511458
 20
-237.6396430724
 10
488.5849218489
 20
-236.6280400775
 10
488.1929614774
 20
-235.4240915094
 10
487.9946572502
 20
-234.0560169019
 10
487.9946572502
 20
-232.5558827645
 10
488.1929614774
 20
-230.9588509698
 10
488.5849218489
 20
-229.3023545894
 10
489.1613511458
 20
-227.6252204946
 10
489.9087383539
 20
-225.9667592872
 10
490.8095653504
 20
-224.365843892
 10
491.8427175142
 20
-222.8599984092
 10
492.9839786341
 20
-221.4845185805
 10
494.2065985167
 20
-220.2716444873
 10
495.4819199884
 20
-219.2498048705
 10
496.7800505946
 20
-218.4429507845
 10
498.0705632542
 20
-217.8699942052
 10
499.3232094444
 20
-217.5443647493
 10
500.5086282
 20
-217.4736948952
 10
501.5990343101
 20
-217.6596410844
 10
502.5688695797
 20
-218.0978448958
 10
503.3954018922
 20
-218.7780352035
 10
504.0592580305
 20
-219.6842689232
 10
504.5448777696
 20
-220.7953047046
 10
504.8408785943
 20
-222.0851008106
 10
504.9403224961
 20
-223.5234255136
  0
LWPOLYLINE
  5
142
330
1F
100
AcDbEntity
  8
0
  6
Continuous
 62
     7
370
    25
100
AcDbPolyline
 90
       42
 70
   128
 43
0.0
 10
504.9403224961
 20
-84.9518546656
 10
504.8408785943
 20
-86.5049948538
 10
504.5448777696
 20
-88.1365462375
 10
504.0592580305
 20
-89.8082666351
 10
503.3954018922
 20
-91.4809723373
 10
502.5688695797
 20
-93.1154565402
 10
501.5990343101
 20
-94.6734083195
 10
500.5086282
 20
-96.1183106058
 10
499.3232094444
 20
-97.4162961143
 10
498.0705632542
 20
-98.5369411647
 10
496.7800505946
 20
-99.4539787868
 10
495.4819199884
 20
-100.1459143961
 10
494.2065985167
 20
-100.5965296083
 10
492.9839786341
 20
-100.7952623848
 10
491.8427175142
 20
-100.7374545977
 10
490.8095653504
 20
-100.4244612126
 10
489.9087383539
 20
-99.8636185291
 10
489.1613511458
 20
-99.0680722244
 10
488.5849218489
 20
-98.0564692295
 10
488.1929614774
 20
-96.8525206614
 10
487.9946572502
 20
-95.4844460539
 10
487.9946572502
 20
-93.9843119165
 10
488.1929614774
 20
-92.3872801218
 10
488.5849218489
 20
-90.7307837414
 10
489.1613511458
 20
-89.0536496466
 10
489.9087383539
 20
-87.3951884392
 10
490.8095653504
 20
-85.794273044
 10
491.8427175142
 20
-84.2884275612
 10
492.9839786341
 20
-82.9129477325
 10
494.2065985167
 20
-81.7000736393
 10
495.4819199884
 20
-80.6782340225
 10
496.7800505946
 20
-79.8713799365
 10
498.0705632542
 20
-79.2984233572
 10
499.3232094444
 20
-78.9727939013
 10
500.5086282
 20
-78.9021240472
 10
501.5990343101
 20
-79.0880702364
 10
502.5688695797
 20
-79.5262740478
 10
503.3954018922
 20
-80.2064643555
 10
504.0592580305
 20
-81.1126980752
 10
504.5448777696
 20
-82.2237338566
 10
504.8408785943
 20
-83.5135299626
 10
504.9403224961
 20
-84.9518546656
  0
LWPOLYLINE
  5
143
330
1F
100
AcDbEntity
  8
0
  6
Continuous
 62
     7
370
    25
100
AcDbPolyline
 90
       42
 70
   128
 43
0.0
 10
444.9403224961
 20
-90.8900053885
 10
444.8408785943
 20
-92.4431455767
 10
444.5448777696
 20
-94.0746969603
 10
444.0592580305
 20
-95.7464173579
 10
443.3954018922
 20
-97.4191230601
 10
442.5688695797
 20
-99.0536072631
 10
441.5990343101
 20
-100.6115590423
 10
440.5086282
 20
-102.0564613287
 10
439.3232094444
 20
-103.3544468371
 10
438.0705632542
 20
-104.4750918875
 10
436.7800505946
 20
-105.3921295097
 10
435.4819199884
 20
-106.0840651189
 10
434.2065985167
 20
-106.5346803312
 10
432.9839786341
 20
-106.7334131076
 10
431.8427175142
 20
-106.6756053205
 10
430.8095653504
 20
-106.3626119354
 10
429.9087383539
 20
-105.8017692519
 10
429.1613511458
 20
-105.0062229472
 10
428.5849218489
 20
-103.9946199524
 10
428.1929614774
 20
-102.7906713842
 10
427.9946572502
 20
-101.4225967768
 10
427.9946572502
 20
-99.9224626393
 10
428.1929614774
 20
-98.3254308446
 10
428.5849218489
 20
-96.6689344643
 10
429.1613511458
 20
-94.9918003695
 10
429.9087383539
 20
-93.333339162
 10
430.8095653504
 20
-91.7324237668
 10
431.8427175142
 20
-90.226578284
 10
432.9839786341
 20
-88.8510984553
 10
434.2065985167
 20
-87.6382243622
 10
435.4819199884
 20
-86.6163847453
 10
436.7800505946
 20
-85.8095306593
 10
438.0705632542
 20
-85.23657408
 10
439.3232094444
 20
-84.9109446241
 10
440.5086282
 20
-84.84027477
 10
441.5990343101
 20
-85.0262209592
 10
442.5688695797
 20
-85.4644247706
 10
443.3954018922
 20
-86.1446150783
 10
444.0592580305
 20
-87.050848798
 10
444.5448777696
 20
-88.1618845794
 10
444.8408785943
 20
-89.4516806854
 10
444.9403224961
 20
-90.8900053885
  0
LWPOLYLINE
  5
144
330
1F
100
AcDbEntity
  8
0
  6
Continuous
 62
     7
370
    25
100
AcDbPolyline
 90
      114
 70
   128
 43
0.0
 10
500.0946514286
 20
-157.0349864537
 10
499.9962982344
 20
-161.1758800857
 10
499.7015426559
 20
-165.4175306337
 10
499.2112957656
 20
-169.7468273989
 10
498.5270728886
 20
-174.1503887732
 10
497.6509889187
 20
-178.6146036007
 10
496.5857517811
 20
-183.1256732492
 10
495.3346540628
 20
-187.6696542609
 10
493.9015628351
 20
-192.232501451
 10
492.290907701
 20
-196.8001113202
 10
490.5076671031
 20
-201.3583656482
 10
488.5573529359
 20
-205.8931751321
 10
486.4459935088
 20
-210.3905229357
 10
484.1801149127
 20
-214.8365080146
 10
481.7667208485
 20
-219.2173880838
 10
479.213270979
 20
-223.519622094
 10
476.5276578714
 20
-227.7299120865
 10
473.7181826019
 20
-231.835244296
 10
470.7935290975
 20
-235.8229293762
 10
467.7627372947
 20
-239.6806416209
 10
464.6351751972
 20
-243.3964570625
 10
461.4205099201
 20
-246.9588903287
 10
458.1286778097
 20
-250.3569301422
 10
454.7698537304
 20
-253.5800733567
 10
451.3544196149
 20
-256.6183574214
 10
447.8929323744
 20
-259.4623911742
 10
444.3960912674
 20
-262.1033838698
 10
440.8747048295
 20
-264.5331723511
 10
437.3396574644
 20
-266.7442462812
 10
433.8018758009
 20
-268.7297713573
 10
430.2722949193
 20
-270.4836104352
 10
426.7618245519
 20
-272.0003424987
 10
423.2813153614
 20
-273.275279416
 10
419.8415254023
 20
-274.3044804302
 10
416.4530868683
 20
-275.0847643398
 10
413.1264732285
 20
-275.6137193321
 10
409.8719668552
 20
-275.8897104374
 10
406.699627241
 20
-275.9118845831
 10
403.619259906
 20
-275.6801732302
 10
400.6403860889
 20
-275.1952925852
 10
397.7722133181
 20
-274.4587413863
 10
395.0236069512
 20
-273.4727962711
 10
392.403062773
 20
-272.2405047395
 10
389.9186807353
 20
-270.765675734
 10
387.5781399207
 20
-269.0528678664
 10
385.3886748067
 20
-267.1073753278
 10
383.3570529045
 20
-264.9352115241
 10
381.489553841
 20
-262.5430904892
 10
379.7919499487
 20
-259.938406132
 10
378.2694884239
 20
-257.1292093827
 10
376.9268751081
 20
-254.1241833074
 10
375.768259942
 20
-250.9326162695
 10
374.7972241387
 20
-247.5643732199
 10
374.0167691143
 20
-244.0298652046
 10
373.4293072104
 20
-240.3400171856
 10
373.0366542382
 20
-236.5062342715
 10
372.8400238655
 20
-232.5403664656
 10
372.8400238655
 20
-228.4546720381
 10
373.0366542382
 20
-224.2617796363
 10
373.4293072104
 20
-219.9746492503
 10
374.0167691143
 20
-215.6065321544
 10
374.7972241387
 20
-211.1709299483
 10
375.768259942
 20
-206.6815528241
 10
376.9268751081
 20
-202.1522771894
 10
378.2694884239
 20
-197.5971027755
 10
379.7919499487
 20
-193.0301093655
 10
381.489553841
 20
-188.4654132743
 10
383.3570529045
 20
-183.9171237159
 10
385.3886748067
 20
-179.3992991927
 10
387.5781399207
 20
-174.9259040414
 10
389.9186807353
 20
-170.5107652701
 10
392.403062773
 20
-166.1675298196
 10
395.0236069512
 20
-161.9096223819
 10
397.7722133181
 20
-157.7502039047
 10
400.6403860889
 20
-153.7021309124
 10
403.619259906
 20
-149.7779157665
 10
406.6996272411
 20
-145.9896879911
 10
409.8719668552
 20
-142.3491567811
 10
413.1264732285
 20
-138.8675748101
 10
416.4530868683
 20
-135.5557034482
 10
419.8415254023
 20
-132.4237795
 10
423.2813153614
 20
-129.4814835631
 10
426.7618245519
 20
-126.7379101055
 10
430.2722949193
 20
-124.2015393556
 10
433.8018758009
 20
-121.8802110899
 10
437.3396574644
 20
-119.7811004012
 10
440.8747048295
 20
-117.9106955203
 10
444.3960912674
 20
-116.2747777615
 10
447.8929323744
 20
-114.8784036527
 10
451.3544196149
 20
-113.7258893065
 10
454.7698537304
 20
-112.8207970785
 10
458.1286778097
 20
-112.1659245569
 10
461.4205099201
 20
-111.7632959153
 10
464.6351751972
 20
-111.6141556556
 10
467.7627372947
 20
-111.7189647619
 10
470.7935290975
 20
-112.0773992753
 10
473.7181826019
 20
-112.688351295
 10
476.5276578714
 20
-113.5499324036
 10
479.213270979
 20
-114.6594795032
 10
481.7667208485
 20
-116.0135630472
 10
484.1801149127
 20
-117.6079976411
 10
486.4459935088
 20
-119.4378549788
 10
488.5573529359
 20
-121.4974790762
 10
490.5076671031
 20
-123.7805037533
 10
492.290907701
 20
-126.2798723116
 10
493.9015628352
 20
-128.9878593461
 10
495.3346540628
 20
-131.8960946242
 10
496.5857517811
 20
-134.9955889571
 10
497.6509889187
 20
-138.2767619856
 10
498.5270728886
 20
-141.7294717919
 10
499.2112957656
 20
-145.3430462478
 10
499.7015426559
 20
-149.1063160017
 10
499.9962982344
 20
-153.0076490026
 10
500.0946514286
 20
-157.0349864537
  0
LWPOLYLINE
  5
145
330
1F
100
AcDbEntity
  8
0
  6
Continuous
 62
     7
370
    25
100
AcDbPolyline
 90
       42
 70
   128
 43
0.0
 10
444.9403224961
 20
-286.8598002411
 10
444.8408785943
 20
-288.4129404293
 10
444.5448777696
 20
-290.0444918129
 10
444.0592580305
 20
-291.7162122105
 10
443.3954018922
 20
-293.3889179127
 10
442.5688695797
 20
-295.0234021157
 10
441.5990343101
 20
-296.5813538949
 10
440.5086282
 20
-298.0262561813
 10
439.3232094444
 20
-299.3242416897
 10
438.0705632542
 20
-300.4448867401
 10
436.7800505946
 20
-301.3619243622
 10
435.4819199884
 20
-302.0538599715
 10
434.2065985167
 20
-302.5044751837
 10
432.983978634
 20
-302.7032079602
 10
431.8427175142
 20
-302.6454001731
 10
430.8095653504
 20
-302.332406788
 10
429.9087383539
 20
-301.7715641045
 10
429.1613511458
 20
-300.9760177998
 10
428.5849218489
 20
-299.9644148049
 10
428.1929614774
 20
-298.7604662368
 10
427.9946572501
 20
-297.3923916294
 10
427.9946572501
 20
-295.8922574919
 10
428.1929614774
 20
-294.2952256972
 10
428.5849218489
 20
-292.6387293168
 10
429.1613511458
 20
-290.9615952221
 10
429.9087383539
 20
-289.3031340146
 10
430.8095653504
 20
-287.7022186194
 10
431.8427175142
 20
-286.1963731366
 10
432.983978634
 20
-284.8208933079
 10
434.2065985167
 20
-283.6080192148
 10
435.4819199884
 20
-282.5861795979
 10
436.7800505946
 20
-281.7793255119
 10
438.0705632542
 20
-281.2063689326
 10
439.3232094444
 20
-280.8807394767
 10
440.5086282
 20
-280.8100696226
 10
441.5990343101
 20
-280.9960158118
 10
442.5688695797
 20
-281.4342196232
 10
443.3954018922
 20
-282.1144099309
 10
444.0592580305
 20
-283.0206436506
 10
444.5448777696
 20
-284.131679432
 10
444.8408785943
 20
-285.421475538
 10
444.9403224961
 20
-286.8598002411
  0
LWPOLYLINE
  5
146
330
1F
100
AcDbEntity
  8
0
  6
Continuous
 62
     7
370
    25
100
AcDbPolyline
 90
       42
 70
   128
 43
0.0
 10
529.7931362385
 20
-139.8904161054
 10
529.6936923366
 20
-141.4435562936
 10
529.397691512
 20
-143.0751076773
 10
528.9120717729
 20
-144.7468280749
 10
528.2482156346
 20
-146.4195337771
 10
527.4216833221
 20
-148.05401798
 10
526.4518480525
 20
-149.6119697593
 10
525.3614419423
 20
-151.0568720456
 10
524.1760231868
 20
-152.3548575541
 10
522.9233769966
 20
-153.4755026044
 10
521.632864337
 20
-154.3925402266
 10
520.3347337307
 20
-155.0844758359
 10
519.0594122591
 20
-155.5350910481
 10
517.8367923764
 20
-155.7338238246
 10
516.6955312565
 20
-155.6760160375
 10
515.6623790928
 20
-155.3630226524
 10
514.7615520962
 20
-154.8021799688
 10
514.0141648882
 20
-154.0066336641
 10
513.4377355913
 20
-152.9950306693
 10
513.0457752198
 20
-151.7910821011
 10
512.8474709925
 20
-150.4230074937
 10
512.8474709925
 20
-148.9228733563
 10
513.0457752198
 20
-147.3258415615
 10
513.4377355913
 20
-145.6693451812
 10
514.0141648882
 20
-143.9922110864
 10
514.7615520962
 20
-142.3337498789
 10
515.6623790928
 20
-140.7328344838
 10
516.6955312565
 20
-139.2269890009
 10
517.8367923764
 20
-137.8515091723
 10
519.0594122591
 20
-136.6386350791
 10
520.3347337307
 20
-135.6167954623
 10
521.632864337
 20
-134.8099413762
 10
522.9233769966
 20
-134.236984797
 10
524.1760231868
 20
-133.911355341
 10
525.3614419423
 20
-133.8406854869
 10
526.4518480525
 20
-134.0266316761
 10
527.4216833221
 20
-134.4648354876
 10
528.2482156346
 20
-135.1450257953
 10
528.9120717729
 20
-136.051259515
 10
529.397691512
 20
-137.1622952963
 10
529.6936923366
 20
-138.4520914023
 10
529.7931362385
 20
-139.8904161054
  0
LWPOLYLINE
  5
147
330
1F
100
AcDbEntity
  8
0
  6
Continuous
 62
     7
370
    25
100
AcDbPolyline
 90
       42
 70
   128
 43
0.0
 10
384.9403224961
 20
-292.7979509639
 10
384.8408785943
 20
-294.3510911521
 10
384.5448777696
 20
-295.9826425358
 10
384.0592580305
 20
-297.6543629333
 10
383.3954018922
 20
-299.3270686356
 10
382.5688695797
 20
-300.9615528385
 10
381.5990343101
 20
-302.5195046178
 10
380.5086282
 20
-303.9644069041
 10
379.3232094444
 20
-305.2623924125
 10
378.0705632542
 20
-306.3830374629
 10
376.7800505946
 20
-307.3000750851
 10
375.4819199884
 20
-307.9920106944
 10
374.2065985167
 20
-308.4426259066
 10
372.983978634
 20
-308.6413586831
 10
371.8427175142
 20
-308.583550896
 10
370.8095653504
 20
-308.2705575108
 10
369.9087383539
 20
-307.7097148273
 10
369.1613511458
 20
-306.9141685226
 10
368.5849218489
 20
-305.9025655278
 10
368.1929614774
 20
-304.6986169596
 10
367.9946572501
 20
-303.3305423522
 10
367.9946572501
 20
-301.8304082148
 10
368.1929614774
 20
-300.23337642
 10
368.5849218489
 20
-298.5768800397
 10
369.1613511458
 20
-296.8997459449
 10
369.9087383539
 20
-295.2412847374
 10
370.8095653504
 20
-293.6403693423
 10
371.8427175142
 20
-292.1345238594
 10
372.983978634
 20
-290.7590440308
 10
374.2065985167
 20
-289.5461699376
 10
375.4819199884
 20
-288.5243303207
 10
376.7800505946
 20
-287.7174762347
 10
378.0705632542
 20
-287.1445196554
 10
379.3232094444
 20
-286.8188901995
 10
380.5086282
 20
-286.7482203454
 10
381.5990343101
 20
-286.9341665346
 10
382.5688695797
 20
-287.3723703461
 10
383.3954018922
 20
-288.0525606538
 10
384.0592580305
 20
-288.9587943735
 10
384.5448777696
 20
-290.0698301548
 10
384.8408785943
 20
-291.3596262608
 10
384.9403224961
 20
-292.7979509639
  0
LWPOLYLINE
  5
148
330
1F
100
AcDbEntity
  8
0
  6
Continuous
 62
     7
370
    25
100
AcDbPolyline
 90
       42
 70
   128
 43
0.0
 10
384.9403224961
 20
-154.2263801159
 10
384.8408785943
 20
-155.7795203041
 10
384.5448777696
 20
-157.4110716878
 10
384.0592580305
 20
-159.0827920853
 10
383.3954018922
 20
-160.7554977876
 10
382.5688695797
 20
-162.3899819905
 10
381.5990343101
 20
-163.9479337698
 10
380.5086282
 20
-165.3928360561
 10
379.3232094444
 20
-166.6908215645
 10
378.0705632542
 20
-167.8114666149
 10
376.7800505946
 20
-168.7285042371
 10
375.4819199884
 20
-169.4204398464
 10
374.2065985167
 20
-169.8710550586
 10
372.9839786341
 20
-170.0697878351
 10
371.8427175142
 20
-170.011980048
 10
370.8095653504
 20
-169.6989866628
 10
369.9087383539
 20
-169.1381439793
 10
369.1613511458
 20
-168.3425976746
 10
368.5849218489
 20
-167.3309946798
 10
368.1929614774
 20
-166.1270461116
 10
367.9946572502
 20
-164.7589715042
 10
367.9946572502
 20
-163.2588373668
 10
368.1929614774
 20
-161.661805572
 10
368.5849218489
 20
-160.0053091917
 10
369.1613511458
 20
-158.3281750969
 10
369.9087383539
 20
-156.6697138894
 10
370.8095653504
 20
-155.0687984943
 10
371.8427175142
 20
-153.5629530114
 10
372.9839786341
 20
-152.1874731828
 10
374.2065985167
 20
-150.9745990896
 10
375.4819199884
 20
-149.9527594727
 10
376.7800505946
 20
-149.1459053867
 10
378.0705632542
 20
-148.5729488074
 10
379.3232094444
 20
-148.2473193515
 10
380.5086282
 20
-148.1766494974
 10
381.5990343101
 20
-148.3625956866
 10
382.5688695797
 20
-148.8007994981
 10
383.3954018922
 20
-149.4809898058
 10
384.0592580305
 20
-150.3872235255
 10
384.5448777696
 20
-151.4982593068
 10
384.8408785943
 20
-152.7880554128
 10
384.9403224961
 20
-154.2263801159
  0
LWPOLYLINE
  5
149
330
1F
100
AcDbEntity
  8
0
  6
Continuous
 62
     7
370
    25
100
AcDbPolyline
 90
        3
 70
   128
 43
0.0
 10
502.6617009325
 20
-219.3035407543
 10
502.5502788695
 20
-219.2417728917
 10
502.4893864875
 20
-219.2101118211
  0
ARC
  5
14A
330
1F
100
AcDbEntity
  8
0
  6
Continuous
 62
     7
370
    25
100
AcDbCircle
 10
466.5326799453
 20
-143.2984813923
 30
0.0
 40
30.24311626125241
100
AcDbArc
 50
43.3443711497
 51
77.7616568578
  0
ARC
  5
14B
330
1F
100
AcDbEntity
  8
0
  6
Continuous
 62
     7
370
    25
100
AcDbCircle
 10
407.8390809152
 20
-244.99027023
 30
0.0
 40
30.33022839459912
100
AcDbArc
 50
222.2437809236
 51
259.7294018448
  0
LINE
  5
14C
330
1F
100
AcDbEntity
  8
0
  6
Continuous
 62
     7
370
    25
100
AcDbLine
 10
401.1288192533
 20
-274.5637727824
 30
0.0
 11
400.133933631
 21
-273.4432830943
 31
0.0
  0
LINE
  5
14D
330
1F
100
AcDbEntity
  8
0
  6
Continuous
 62
     7
370
    25
100
AcDbLine
 10
488.3196513693
 20
-122.6838747996
 30
0.0
 11
488.8092390625
 21
-122.7930402428
 31
0.0
  0
LWPOLYLINE
  5
14E
330
1F
100
AcDbEntity
  8
0
  6
Continuous
 62
     7
370
    25
100
AcDbPolyline
 90
        3
 70
   128
 43
0.0
 10
527.5145146749
 20
-135.6705313461
 10
527.4030926119
 20
-135.6087634834
 10
527.3422002299
 20
-135.5771024128
  0
LWPOLYLINE
  5
14F
330
1F
100
AcDbEntity
  8
0
  6
Continuous
 62
     7
370
    25
100
AcDbPolyline
 90
        3
 70
   128
 43
0.0
 10
442.6617009325
 20
-282.6399154817
 10
442.5502788695
 20
-282.5781476191
 10
442.4893864875
 20
-282.5464865485
  0
LWPOLYLINE
  5
150
330
1F
100
AcDbEntity
  8
0
  6
Continuous
 62
     7
370
    25
100
AcDbPolyline
 90
        3
 70
   128
 43
0.0
 10
502.6617009325
 20
-80.7319699063
 10
502.5502788695
 20
-80.6702020437
 10
502.4893864875
 20
-80.6385409731
  0
LWPOLYLINE
  5
151
330
1F
100
AcDbEntity
  8
0
  6
Continuous
 62
     7
370
    25
100
AcDbPolyline
 90
        3
 70
   128
 43
0.0
 10
382.6617009325
 20
-288.5780662046
 10
382.5502788695
 20
-288.5162983419
 10
382.4893864875
 20
-288.4846372713
  0
LWPOLYLINE
  5
152
330
1F
100
AcDbEntity
  8
0
  6
Continuous
 62
     7
370
    25
100
AcDbPolyline
 90
        3
 70
   128
 43
0.0
 10
442.6617009325
 20
-86.6701206291
 10
442.5502788695
 20
-86.6083527665
 10
442.4893864875
 20
-86.5766916959
  0
LWPOLYLINE
  5
153
330
1F
100
AcDbEntity
  8
0
  6
Continuous
 62
     7
370
    25
100
AcDbPolyline
 90
        3
 70
   128
 43
0.0
 10
357.8088871901
 20
-233.6395047648
 10
357.6974651271
 20
-233.5777369022
 10
357.6365727451
 20
-233.5460758316
  0
LWPOLYLINE
  5
154
330
1F
100
AcDbEntity
  8
0
  6
Continuous
 62
     7
370
    25
100
AcDbPolyline
 90
        3
 70
   128
 43
0.0
 10
382.6617009325
 20
-150.0064953566
 10
382.5502788695
 20
-149.9447274939
 10
382.4893864875
 20
-149.9130664233
  0
LWPOLYLINE
  5
155
330
1F
100
AcDbEntity
  8
0
  6
Continuous
 62
     1
370
    25
100
AcDbPolyline
 90
       50
 70
   128
 43
0.0
 10
537.9248642221
 20
-136.0124775742
 10
537.8262403476
 20
-141.2162743559
 10
537.5305617849
 20
-146.5237531627
 10
537.0384073388
 20
-151.9245243557
 10
536.3507404246
 20
-157.4080156716
 10
535.4689071827
 20
-162.9634929188
 10
534.3946338429
 20
-168.5800809895
 10
533.130023346
 20
-174.2467851488
 10
531.6775512261
 20
-179.9525125574
 10
530.0400607658
 20
-185.6860939858
 10
528.2207574296
 20
-191.4363056792
 10
526.2232025891
 20
-197.191891328
 10
524.0513065517
 20
-202.9415841032
 10
521.7093209059
 20
-208.6741287111
 10
519.2018301986
 20
-214.3783034265
 10
516.5337429607
 20
-220.0429420595
 10
513.7102820982
 20
-225.6569558138
 10
510.7369746682
 20
-231.2093549941
 10
507.6196410598
 20
-236.6892705181
 10
504.3643835998
 20
-242.0859751939
 10
500.9775746077
 20
-247.3889047186
 10
497.465843921
 20
-252.5876783587
 10
493.8360659174
 20
-257.6721192706
 10
490.095346058
 20
-262.6322744225
 10
486.2510069774
 20
-267.4584340777
 10
482.31057415
 20
-272.1411508021
 10
478.281761158
 20
-276.6712579578
 10
474.1724545921
 20
-281.0398876473
 10
469.9906986128
 20
-285.2384880729
 10
465.7446792039
 20
-289.2588402769
 10
461.4427081477
 20
-293.0930742313
 10
457.0932067547
 20
-296.7336842429
 10
452.7046893779
 20
-300.1735436468
 10
448.2857467464
 20
-303.4059187565
 10
443.8450291477
 20
-306.4244820461
 10
439.3912294952
 20
-309.2233245361
 10
434.9330663108
 20
-311.7969673609
 10
430.4792666583
 20
-314.1403724939
 10
426.0385490597
 20
-316.2489526094
 10
421.6196064281
 20
-318.1185800629
 10
417.2310890514
 20
-319.7455949707
 10
412.8815876583
 20
-321.1268123749
 10
408.5796166022
 20
-322.2595284775
 10
404.3335971932
 20
-323.1415259335
 10
400.151841214
 20
-323.7710781915
 10
396.0425346481
 20
-324.1469528734
 10
392.0137216561
 20
-324.2684141869
 10
388.0732888286
 20
-324.1352243656
 10
384.2289497481
 20
-323.747644135
 10
380.7256043818
 20
-323.1552919464
  0
LWPOLYLINE
  5
156
330
1F
100
AcDbEntity
  8
0
  6
Continuous
 62
     1
370
    25
100
AcDbPolyline
 90
       15
 70
   128
 43
0.0
 10
521.3759904267
 20
-81.6755601149
 10
521.7093209059
 20
-82.0728942398
 10
524.0513065517
 20
-85.1014397774
 10
526.2232025891
 20
-88.3435147639
 10
528.2207574296
 20
-91.7927726855
 10
530.0400607658
 20
-95.4424614577
 10
531.6775512261
 20
-99.2854366433
 10
533.130023346
 20
-103.3141754381
 10
534.3946338429
 20
-107.5207913965
 10
535.4689071827
 20
-111.8970498703
 10
536.3507404246
 20
-116.434384128
 10
537.0384073388
 20
-121.1239121248
 10
537.5305617849
 20
-125.9564538894
 10
537.8262403476
 20
-130.9225494943
 10
537.9248642221
 20
-136.0124775742
  0
LWPOLYLINE
  5
157
330
1F
100
AcDbEntity
  8
0
  6
Continuous
 62
     1
370
    25
100
AcDbPolyline
 90
       15
 70
   128
 43
0.0
 10
553.4812134082
 20
-144.9929668043
 10
553.3825895337
 20
-139.9030387244
 10
553.086910971
 20
-134.9369431195
 10
552.5947565249
 20
-130.1044013549
 10
551.9070896107
 20
-125.4148733581
 10
551.0252563688
 20
-120.8775391003
 10
549.9509830291
 20
-116.5012806265
 10
548.6863725321
 20
-112.2946646681
 10
547.2339004122
 20
-108.2659258734
 10
545.5964099519
 20
-104.4229506877
 10
543.7771066157
 20
-100.7732619156
 10
541.7795517752
 20
-97.324003994
 10
539.6076557378
 20
-94.0819290074
 10
537.265670092
 20
-91.0533834699
 10
536.6888712432
 20
-90.3707051848
  0
LWPOLYLINE
  5
158
330
1F
100
AcDbEntity
  8
0
  6
Continuous
 62
     1
370
    25
100
AcDbPolyline
 90
       50
 70
   128
 43
0.0
 10
397.249422755
 20
-332.3232396594
 10
399.7852989342
 20
-332.728133365
 10
403.6296380147
 20
-333.1157135957
 10
407.5700708422
 20
-333.2489034169
 10
411.5988838342
 20
-333.1274421035
 10
415.7081904001
 20
-332.7515674216
 10
419.8899463793
 20
-332.1220151636
 10
424.1359657883
 20
-331.2400177076
 10
428.4379368444
 20
-330.107301605
 10
432.7874382375
 20
-328.7260842008
 10
437.1759556142
 20
-327.0990692929
 10
441.5948982458
 20
-325.2294418395
 10
446.0356158444
 20
-323.120861724
 10
450.4894154969
 20
-320.777456591
 10
454.9475786813
 20
-318.2038137662
 10
459.4013783338
 20
-315.4049712762
 10
463.8420959325
 20
-312.3864079866
 10
468.261038564
 20
-309.1540328768
 10
472.6495559408
 20
-305.714173473
 10
476.9990573338
 20
-302.0735634613
 10
481.30102839
 20
-298.239329507
 10
485.5470477989
 20
-294.2189773029
 10
489.7288037782
 20
-290.0203768774
 10
493.8381103441
 20
-285.6517471879
 10
497.8669233361
 20
-281.1216400322
 10
501.8073561635
 20
-276.4389233078
 10
505.6516952441
 20
-271.6127636525
 10
509.3924151035
 20
-266.6526085006
 10
513.0221931071
 20
-261.5681675887
 10
516.5339237938
 20
-256.3693939487
 10
519.9207327859
 20
-251.0664644239
 10
523.1759902459
 20
-245.6697597482
 10
526.2933238543
 20
-240.1898442242
 10
529.2666312843
 20
-234.6374450439
 10
532.0900921468
 20
-229.0234312895
 10
534.7581793848
 20
-223.3587926566
 10
537.265670092
 20
-217.6546179412
 10
539.6076557378
 20
-211.9220733333
 10
541.7795517752
 20
-206.1723805581
 10
543.7771066157
 20
-200.4167949092
 10
545.5964099519
 20
-194.6665832159
 10
547.2339004122
 20
-188.9330017875
 10
548.6863725321
 20
-183.2272743789
 10
549.9509830291
 20
-177.5605702195
 10
551.0252563688
 20
-171.9439821488
 10
551.9070896107
 20
-166.3885049017
 10
552.5947565249
 20
-160.9050135858
 10
553.086910971
 20
-155.5042423928
 10
553.3825895337
 20
-150.1967635859
 10
553.4812134082
 20
-144.9929668043
  0
LWPOLYLINE
  5
159
330
1F
100
AcDbEntity
  8
0
  6
Continuous
 62
     1
370
    25
100
AcDbPolyline
 90
       21
 70
   128
 43
0.0
 10
502.4893864875
 20
-219.2101118211
 10
501.5806546832
 20
-218.8873295162
 10
500.4965934923
 20
-218.79039811
 10
499.3261719122
 20
-218.9534891456
 10
498.0997032469
 20
-219.3723786508
 10
496.8489523907
 20
-220.0362176075
 10
495.6063131337
 20
-220.9278129354
 10
494.40396918
 20
-222.0240727838
 10
493.2730606065
 20
-223.2966045985
 10
492.2428773511
 20
-224.7124504739
 10
491.340100619
 20
-226.2349407456
 10
490.5881118533
 20
-227.8246437153
 10
490.0063871682
 20
-229.440386911
 10
489.6099929274
 20
-231.0403234327
 10
489.4091955334
 20
-232.583015765
 10
489.4091955334
 20
-234.0285089867
 10
489.6099929274
 20
-235.3393655826
 10
490.0063871682
 20
-236.4816350556
 10
490.5881118533
 20
-237.4257332263
 10
491.340100619
 20
-238.1472084479
 10
491.6020572959
 20
-238.3208902574
  0
LWPOLYLINE
  5
15A
330
1F
100
AcDbEntity
  8
0
  6
Continuous
 62
     1
370
    25
100
AcDbPolyline
 90
       51
 70
   128
 43
0.0
 10
472.9435809376
 20
-113.7426625124
 10
470.6442584341
 20
-113.3194915651
 10
467.6037884712
 20
-113.0036182338
 10
464.4675378447
 20
-112.9431607262
 10
461.2453743595
 20
-113.1383092639
 10
457.9474361339
 20
-113.5884498376
 10
454.5840997018
 20
-114.2921661384
 10
451.1659473637
 20
-115.2472440145
 10
447.7037338917
 20
-116.4506784375
 10
444.2083526901
 20
-117.8986829576
 10
440.6908015215
 20
-119.5867016167
 10
437.162147903
 20
-121.5094232838
 10
433.6334942846
 20
-123.660798365
 10
430.1159431159
 20
-126.0340578385
 10
426.6205619143
 20
-128.6217345519
 10
423.1583484423
 20
-131.4156867169
 10
419.7401961043
 20
-134.4071235263
 10
416.3768596721
 20
-137.5866328133
 10
413.0789214465
 20
-140.9442106654
 10
409.8567579613
 20
-144.4692929003
 10
406.7205073349
 20
-148.1507883052
 10
403.680037372
 20
-151.9771135336
 10
400.744914516
 20
-155.9362295508
 10
397.9243737494
 20
-160.0156795128
 10
395.2272895368
 20
-164.2026279611
 10
392.662147903
 20
-168.4839012066
 10
390.2370197327
 20
-172.8460287799
 10
387.9595353762
 20
-177.2752858138
 10
385.8368606419
 20
-181.7577362269
 10
383.8756742499
 20
-186.279276572
 10
382.0821468181
 20
-190.8256804103
 10
380.4619214473
 20
-195.3826430733
 10
379.020095966
 20
-199.9358266706
 10
377.7612068906
 20
-204.470905202
 10
376.6892151519
 20
-208.9736096327
 10
375.8074936324
 20
-213.4297727887
 10
375.1188165543
 20
-217.8253739321
 10
374.6253507505
 20
-222.1465828754
 10
374.3286488469
 20
-226.3798034967
 10
374.2296443774
 20
-230.5117165177
 10
374.3286488469
 20
-234.5293214115
 10
374.6253507505
 20
-238.4199773065
 10
375.1188165543
 20
-242.1714427601
 10
375.8074936324
 20
-245.7719142739
 10
376.6892151519
 20
-249.2100634325
 10
377.7612068906
 20
-252.4750725468
 10
379.020095966
 20
-255.55666869
 10
380.4619214473
 20
-258.4451560206
 10
382.0821468181
 20
-261.1314462889
 10
383.8756742499
 20
-263.6070874319
 10
385.38588265
 20
-265.380872039
  0
LWPOLYLINE
  5
15B
330
1F
100
AcDbEntity
  8
0
  6
Continuous
 62
     1
370
    25
100
AcDbPolyline
 90
       51
 70
   128
 43
0.0
 10
400.133933631
 20
-273.4432830943
 10
399.432023436
 20
-272.5875766619
 10
397.6384960042
 20
-270.111935519
 10
396.0182706334
 20
-267.4256452507
 10
394.5764451521
 20
-264.53715792
 10
393.3175560767
 20
-261.4555617768
 10
392.245564338
 20
-258.1905526626
 10
391.3638428185
 20
-254.7524035039
 10
390.6751657404
 20
-251.1519319901
 10
390.1816999366
 20
-247.4004665366
 10
389.884998033
 20
-243.5098106415
 10
389.7859935635
 20
-239.4922057478
 10
389.884998033
 20
-235.3602927267
 10
390.1816999366
 20
-231.1270721055
 10
390.6751657404
 20
-226.8058631621
 10
391.3638428185
 20
-222.4102620187
 10
392.245564338
 20
-217.9540988627
 10
393.3175560767
 20
-213.451394432
 10
394.5764451521
 20
-208.9163159006
 10
396.0182706334
 20
-204.3631323033
 10
397.6384960042
 20
-199.8061696403
 10
399.432023436
 20
-195.2597658021
 10
401.393209828
 20
-190.738225457
 10
403.5158845623
 20
-186.2557750438
 10
405.7933689188
 20
-181.82651801
 10
408.2184970891
 20
-177.4643904367
 10
410.7836387229
 20
-173.1831171911
 10
413.4807229355
 20
-168.9961687429
 10
416.3012637021
 20
-164.9167187808
 10
419.2363865581
 20
-160.9576027637
 10
422.276856521
 20
-157.1312775353
 10
425.4131071474
 20
-153.4497821303
 10
428.6352706326
 20
-149.9246998954
 10
431.9332088582
 20
-146.5671220434
 10
435.2965452904
 20
-143.3876127564
 10
438.7146976284
 20
-140.3961759469
 10
442.1769111004
 20
-137.6022237819
 10
445.672292302
 20
-135.0145470685
 10
449.1898434707
 20
-132.6412875951
 10
452.7184970891
 20
-130.4899125138
 10
456.2471507076
 20
-128.5671908468
 10
459.7647018762
 20
-126.8791721876
 10
463.2600830778
 20
-125.4311676676
 10
466.7222965498
 20
-124.2277332445
 10
470.1404488879
 20
-123.2726553685
 10
473.50378532
 20
-122.5689390677
 10
476.8017235456
 20
-122.118798494
 10
480.0238870308
 20
-121.9236499562
 10
483.1601376573
 20
-121.9841074638
 10
486.2006076202
 20
-122.2999807952
 10
488.3196513693
 20
-122.6838747996
  0
LWPOLYLINE
  5
15C
330
1F
100
AcDbEntity
  8
0
  6
Continuous
 62
     1
370
    25
100
AcDbPolyline
 90
       21
 70
   128
 43
0.0
 10
527.3422002299
 20
-135.5771024128
 10
526.4334684256
 20
-135.254320108
 10
525.3494072347
 20
-135.1573887018
 10
524.1789856546
 20
-135.3204797374
 10
522.9525169893
 20
-135.7393692426
 10
521.7017661331
 20
-136.4032081993
 10
520.4591268761
 20
-137.2948035271
 10
519.2567829224
 20
-138.3910633755
 10
518.1258743489
 20
-139.6635951903
 10
517.0956910935
 20
-141.0794410657
 10
516.1929143614
 20
-142.6019313374
 10
515.4409255957
 20
-144.191634307
 10
514.8592009106
 20
-145.8073775028
 10
514.4628066698
 20
-147.4073140245
 10
514.2620092758
 20
-148.9500063567
 10
514.2620092758
 20
-150.3954995784
 10
514.4628066698
 20
-151.7063561744
 10
514.8592009106
 20
-152.8486256474
 10
515.4409255957
 20
-153.7927238181
 10
516.1929143614
 20
-154.5141990397
 10
516.4548710383
 20
-154.6878808491
  0
LWPOLYLINE
  5
15D
330
1F
100
AcDbEntity
  8
0
  6
Continuous
 62
     1
370
    25
100
AcDbPolyline
 90
       21
 70
   128
 43
0.0
 10
442.4893864875
 20
-282.5464865485
 10
441.5806546832
 20
-282.2237042436
 10
440.4965934923
 20
-282.1267728374
 10
439.3261719122
 20
-282.289863873
 10
438.0997032469
 20
-282.7087533782
 10
436.8489523907
 20
-283.3725923349
 10
435.6063131337
 20
-284.2641876628
 10
434.40396918
 20
-285.3604475112
 10
433.2730606065
 20
-286.6329793259
 10
432.2428773511
 20
-288.0488252013
 10
431.340100619
 20
-289.571315473
 10
430.5881118533
 20
-291.1610184427
 10
430.0063871682
 20
-292.7767616384
 10
429.6099929274
 20
-294.3766981602
 10
429.4091955334
 20
-295.9193904924
 10
429.4091955334
 20
-297.3648837141
 10
429.6099929274
 20
-298.6757403101
 10
430.0063871682
 20
-299.8180097831
 10
430.5881118533
 20
-300.7621079537
 10
431.340100619
 20
-301.4835831753
 10
431.6020572959
 20
-301.6572649848
  0
LWPOLYLINE
  5
15E
330
1F
100
AcDbEntity
  8
0
  6
Continuous
 62
     1
370
    25
100
AcDbPolyline
 90
       21
 70
   128
 43
0.0
 10
502.4893864875
 20
-80.6385409731
 10
501.5806546833
 20
-80.3157586682
 10
500.4965934924
 20
-80.218827262
 10
499.3261719122
 20
-80.3819182976
 10
498.0997032469
 20
-80.8008078028
 10
496.8489523907
 20
-81.4646467595
 10
495.6063131337
 20
-82.3562420874
 10
494.4039691801
 20
-83.4525019358
 10
493.2730606065
 20
-84.7250337505
 10
492.2428773511
 20
-86.1408796259
 10
491.340100619
 20
-87.6633698976
 10
490.5881118533
 20
-89.2530728673
 10
490.0063871682
 20
-90.868816063
 10
489.6099929274
 20
-92.4687525847
 10
489.4091955334
 20
-94.011444917
 10
489.4091955334
 20
-95.4569381387
 10
489.6099929274
 20
-96.7677947346
 10
490.0063871682
 20
-97.9100642076
 10
490.5881118533
 20
-98.8541623783
 10
491.340100619
 20
-99.5756375999
 10
491.6020572959
 20
-99.7493194094
  0
LWPOLYLINE
  5
15F
330
1F
100
AcDbEntity
  8
0
  6
Continuous
 62
     1
370
    25
100
AcDbPolyline
 90
       21
 70
   128
 43
0.0
 10
382.4893864875
 20
-288.4846372713
 10
381.5806546832
 20
-288.1618549665
 10
380.4965934923
 20
-288.0649235603
 10
379.3261719122
 20
-288.2280145959
 10
378.0997032469
 20
-288.6469041011
 10
376.8489523907
 20
-289.3107430578
 10
375.6063131337
 20
-290.2023383856
 10
374.40396918
 20
-291.298598234
 10
373.2730606065
 20
-292.5711300487
 10
372.2428773511
 20
-293.9869759242
 10
371.340100619
 20
-295.5094661959
 10
370.5881118533
 20
-297.0991691655
 10
370.0063871682
 20
-298.7149123612
 10
369.6099929274
 20
-300.314848883
 10
369.4091955334
 20
-301.8575412152
 10
369.4091955334
 20
-303.3030344369
 10
369.6099929274
 20
-304.6138910329
 10
370.0063871682
 20
-305.7561605059
 10
370.5881118533
 20
-306.7002586765
 10
371.340100619
 20
-307.4217338981
 10
371.6020572959
 20
-307.5954157076
  0
LWPOLYLINE
  5
160
330
1F
100
AcDbEntity
  8
0
  6
Continuous
 62
     1
370
    25
100
AcDbPolyline
 90
       21
 70
   128
 43
0.0
 10
442.4893864875
 20
-86.5766916959
 10
441.5806546833
 20
-86.253909391
 10
440.4965934924
 20
-86.1569779849
 10
439.3261719122
 20
-86.3200690204
 10
438.0997032469
 20
-86.7389585256
 10
436.8489523907
 20
-87.4027974823
 10
435.6063131337
 20
-88.2943928102
 10
434.4039691801
 20
-89.3906526586
 10
433.2730606065
 20
-90.6631844733
 10
432.2428773511
 20
-92.0790303488
 10
431.340100619
 20
-93.6015206204
 10
430.5881118533
 20
-95.1912235901
 10
430.0063871682
 20
-96.8069667858
 10
429.6099929274
 20
-98.4069033076
 10
429.4091955334
 20
-99.9495956398
 10
429.4091955334
 20
-101.3950888615
 10
429.6099929274
 20
-102.7059454575
 10
430.0063871682
 20
-103.8482149305
 10
430.5881118533
 20
-104.7923131011
 10
431.340100619
 20
-105.5137883227
 10
431.6020572959
 20
-105.6874701322
  0
LWPOLYLINE
  5
161
330
1F
100
AcDbEntity
  8
0
  6
Continuous
 62
     1
370
    25
100
AcDbPolyline
 90
       21
 70
   128
 43
0.0
 10
357.6365727451
 20
-233.5460758316
 10
356.7278409409
 20
-233.2232935267
 10
355.64377975
 20
-233.1263621205
 10
354.4733581698
 20
-233.2894531561
 10
353.2468895045
 20
-233.7083426613
 10
351.9961386483
 20
-234.372181618
 10
350.7534993913
 20
-235.2637769459
 10
349.5511554377
 20
-236.3600367943
 10
348.4202468641
 20
-237.632568609
 10
347.3900636087
 20
-239.0484144844
 10
346.4872868766
 20
-240.5709047561
 10
345.735298111
 20
-242.1606077258
 10
345.1535734258
 20
-243.7763509215
 10
344.757179185
 20
-245.3762874432
 10
344.5563817911
 20
-246.9189797755
 10
344.5563817911
 20
-248.3644729972
 10
344.757179185
 20
-249.6753295931
 10
345.1535734258
 20
-250.8175990661
 10
345.735298111
 20
-251.7616972368
 10
346.4872868766
 20
-252.4831724584
 10
346.7492435535
 20
-252.6568542678
  0
LWPOLYLINE
  5
162
330
1F
100
AcDbEntity
  8
0
  6
Continuous
 62
     1
370
    25
100
AcDbPolyline
 90
       21
 70
   128
 43
0.0
 10
382.4893864875
 20
-149.9130664233
 10
381.5806546832
 20
-149.5902841185
 10
380.4965934924
 20
-149.4933527123
 10
379.3261719122
 20
-149.6564437479
 10
378.0997032469
 20
-150.0753332531
 10
376.8489523907
 20
-150.7391722098
 10
375.6063131337
 20
-151.6307675376
 10
374.40396918
 20
-152.727027386
 10
373.2730606065
 20
-153.9995592007
 10
372.2428773511
 20
-155.4154050762
 10
371.340100619
 20
-156.9378953479
 10
370.5881118533
 20
-158.5275983175
 10
370.0063871682
 20
-160.1433415132
 10
369.6099929274
 20
-161.743278035
 10
369.4091955334
 20
-163.2859703672
 10
369.4091955334
 20
-164.7314635889
 10
369.6099929274
 20
-166.0423201849
 10
370.0063871682
 20
-167.1845896579
 10
370.5881118533
 20
-168.1286878285
 10
371.340100619
 20
-168.8501630501
 10
371.6020572959
 20
-169.0238448596
  0
ENDSEC
  0
SECTION
  2
OBJECTS
  0
DICTIONARY
  5
C
330
0
100
AcDbDictionary
281
     1
  3
ACAD_GROUP
350
D
  3
ACAD_LAYOUT
350
1A
  3
ACAD_MLINESTYLE
350
17
  3
ACAD_PLOTSETTINGS
350
19
  3
ACAD_PLOTSTYLENAME
350
E
  3
ACAD_SCALELIST
350
47
  3
DWGPROPS
350
163
  0
DICTIONARY
  5
D
102
{ACAD_REACTORS
330
C
102
}
330
C
100
AcDbDictionary
281
     1
  0
DICTIONARY
  5
1A
102
{ACAD_REACTORS
330
C
102
}
330
C
100
AcDbDictionary
281
     1
  3
Layout1
350
1E
  3
Layout2
350
26
  3
Model
350
22
  0
DICTIONARY
  5
17
102
{ACAD_REACTORS
330
C
102
}
330
C
100
AcDbDictionary
281
     1
  3
Standard
350
18
  0
DICTIONARY
  5
19
102
{ACAD_REACTORS
330
C
102
}
330
C
100
AcDbDictionary
281
     1
  0
ACDBDICTIONARYWDFLT
  5
E
102
{ACAD_REACTORS
330
C
102
}
330
C
100
AcDbDictionary
281
     1
  3
Normal
350
F
100
AcDbDictionaryWithDefault
340
F
  0
DICTIONARY
  5
47
102
{ACAD_REACTORS
330
C
102
}
330
C
100
AcDbDictionary
281
     1
  3
A0
350
48
  3
A1
350
49
  3
A2
350
4A
  3
A3
350
4B
  3
A4
350
4C
  3
A5
350
4D
  3
A6
350
4E
  3
A7
350
4F
  3
A8
350
50
  3
A9
350
51
  3
B0
350
52
  3
B1
350
53
  3
B2
350
54
  3
B3
350
55
  3
B4
350
56
  3
B5
350
57
  3
B6
350
58
  3
B7
350
59
  3
B8
350
5A
  3
B9
350
5B
  3
C0
350
5C
  3
C1
350
5D
  3
C2
350
5E
  3
C3
350
5F
  3
C4
350
60
  3
C5
350
61
  3
C6
350
62
  3
C7
350
63
  3
C8
350
64
  3
C9
350
65
  3
D0
350
66
  3
D1
350
67
  3
D2
350
68
  0
XRECORD
  5
163
102
{ACAD_REACTORS
330
C
102
}
330
C
100
AcDbXrecord
280
     1
  1
DWGPROPS COOKIE
  2

  3

  4

  6

  7

  8
b.kav
  9

300
=
301
=
302
=
303
=
304
=
305
=
306
=
307
=
308
=
309
=
 40
0.0
 41
2459741.467490637
 42
2459741.467492593
  1

 90
        0
  0
LAYOUT
  5
1E
102
{ACAD_REACTORS
330
1A
102
}
330
1A
100
AcDbPlotSettings
  1

  2
none_device
  4

  6

 40
0.0
 41
0.0
 42
0.0
 43
0.0
 44
0.0
 45
0.0
 46
0.0
 47
0.0
 48
0.0
 49
0.0
140
0.0
141
0.0
142
1.0
143
1.0
 70
   688
 72
     1
 73
     0
 74
     5
  7

 75
    16
147
1.0
148
0.0
149
0.0
100
AcDbLayout
  1
Layout1
 70
     1
 71
     1
 10
0.0
 20
0.0
 11
420.0
 21
297.0
 12
0.0
 22
0.0
 32
0.0
 14
1.0000000000E+20
 24
1.0000000000E+20
 34
1.0000000000E+20
 15
-1.0000000000E+20
 25
-1.0000000000E+20
 35
-1.0000000000E+20
146
0.0
 13
0.0
 23
0.0
 33
0.0
 16
1.0
 26
0.0
 36
0.0
 17
0.0
 27
1.0
 37
0.0
 76
     0
330
1B
  0
LAYOUT
  5
26
102
{ACAD_REACTORS
330
1A
102
}
330
1A
100
AcDbPlotSettings
  1

  2
none_device
  4

  6

 40
0.0
 41
0.0
 42
0.0
 43
0.0
 44
0.0
 45
0.0
 46
0.0
 47
0.0
 48
0.0
 49
0.0
140
0.0
141
0.0
142
1.0
143
1.0
 70
   688
 72
     1
 73
     0
 74
     5
  7

 75
    16
147
1.0
148
0.0
149
0.0
100
AcDbLayout
  1
Layout2
 70
     1
 71
     2
 10
0.0
 20
0.0
 11
0.0
 21
0.0
 12
0.0
 22
0.0
 32
0.0
 14
0.0
 24
0.0
 34
0.0
 15
0.0
 25
0.0
 35
0.0
146
0.0
 13
0.0
 23
0.0
 33
0.0
 16
1.0
 26
0.0
 36
0.0
 17
0.0
 27
1.0
 37
0.0
 76
     0
330
23
  0
LAYOUT
  5
22
102
{ACAD_REACTORS
330
1A
102
}
330
1A
100
AcDbPlotSettings
  1

  2
none_device
  4
Letter_(8.50_x_11.00_Inches)
  6

 40
6.35
 41
6.35
 42
6.35000508
 43
6.35000508
 44
215.9
 45
279.4
 46
0.0
 47
0.0
 48
0.0
 49
0.0
140
0.0
141
0.0
142
1.0
143
1.0
 70
  1712
 72
     1
 73
     0
 74
     0
  7

 75
     0
147
1.0
148
0.0
149
0.0
100
AcDbLayout
  1
Model
 70
     1
 71
     0
 10
0.0
 20
0.0
 11
279.4
 21
215.9
 12
0.0
 22
0.0
 32
0.0
 14
0.0
 24
0.0
 34
0.0
 15
279.4
 25
215.9
 35
0.0
146
0.0
 13
0.0
 23
0.0
 33
0.0
 16
1.0
 26
0.0
 36
0.0
 17
0.0
 27
1.0
 37
0.0
 76
     0
330
1F
331
29
  0
MLINESTYLE
  5
18
102
{ACAD_REACTORS
330
17
102
}
330
17
100
AcDbMlineStyle
  2
Standard
 70
     0
  3

 62
   256
 51
90.0
 52
90.0
 71
     2
 49
0.5
 62
   256
  6
BYLAYER
 49
-0.5
 62
   256
  6
BYLAYER
  0
ACDBPLACEHOLDER
  5
F
102
{ACAD_REACTORS
330
E
102
}
330
E
  0
SCALE
  5
48
102
{ACAD_REACTORS
330
47
102
}
330
47
100
AcDbScale
 70
     0
300
1:1
140
1.0
141
1.0
290
     1
  0
SCALE
  5
49
102
{ACAD_REACTORS
330
47
102
}
330
47
100
AcDbScale
 70
     0
300
1:2
140
1.0
141
2.0
290
     0
  0
SCALE
  5
4A
102
{ACAD_REACTORS
330
47
102
}
330
47
100
AcDbScale
 70
     0
300
1:4
140
1.0
141
4.0
290
     0
  0
SCALE
  5
4B
102
{ACAD_REACTORS
330
47
102
}
330
47
100
AcDbScale
 70
     0
300
1:5
140
1.0
141
5.0
290
     0
  0
SCALE
  5
4C
102
{ACAD_REACTORS
330
47
102
}
330
47
100
AcDbScale
 70
     0
300
1:8
140
1.0
141
8.0
290
     0
  0
SCALE
  5
4D
102
{ACAD_REACTORS
330
47
102
}
330
47
100
AcDbScale
 70
     0
300
1:10
140
1.0
141
10.0
290
     0
  0
SCALE
  5
4E
102
{ACAD_REACTORS
330
47
102
}
330
47
100
AcDbScale
 70
     0
300
1:16
140
1.0
141
16.0
290
     0
  0
SCALE
  5
4F
102
{ACAD_REACTORS
330
47
102
}
330
47
100
AcDbScale
 70
     0
300
1:20
140
1.0
141
20.0
290
     0
  0
SCALE
  5
50
102
{ACAD_REACTORS
330
47
102
}
330
47
100
AcDbScale
 70
     0
300
1:30
140
1.0
141
30.0
290
     0
  0
SCALE
  5
51
102
{ACAD_REACTORS
330
47
102
}
330
47
100
AcDbScale
 70
     0
300
1:40
140
1.0
141
40.0
290
     0
  0
SCALE
  5
52
102
{ACAD_REACTORS
330
47
102
}
330
47
100
AcDbScale
 70
     0
300
1:50
140
1.0
141
50.0
290
     0
  0
SCALE
  5
53
102
{ACAD_REACTORS
330
47
102
}
330
47
100
AcDbScale
 70
     0
300
1:100
140
1.0
141
100.0
290
     0
  0
SCALE
  5
54
102
{ACAD_REACTORS
330
47
102
}
330
47
100
AcDbScale
 70
     0
300
2:1
140
2.0
141
1.0
290
     0
  0
SCALE
  5
55
102
{ACAD_REACTORS
330
47
102
}
330
47
100
AcDbScale
 70
     0
300
4:1
140
4.0
141
1.0
290
     0
  0
SCALE
  5
56
102
{ACAD_REACTORS
330
47
102
}
330
47
100
AcDbScale
 70
     0
300
8:1
140
8.0
141
1.0
290
     0
  0
SCALE
  5
57
102
{ACAD_REACTORS
330
47
102
}
330
47
100
AcDbScale
 70
     0
300
10:1
140
10.0
141
1.0
290
     0
  0
SCALE
  5
58
102
{ACAD_REACTORS
330
47
102
}
330
47
100
AcDbScale
 70
     0
300
100:1
140
100.0
141
1.0
290
     0
  0
SCALE
  5
59
102
{ACAD_REACTORS
330
47
102
}
330
47
100
AcDbScale
 70
     0
300
1/128" = 1'-0"
140
0.0078125
141
12.0
290
     0
  0
SCALE
  5
5A
102
{ACAD_REACTORS
330
47
102
}
330
47
100
AcDbScale
 70
     0
300
1/64" = 1'-0"
140
0.015625
141
12.0
290
     0
  0
SCALE
  5
5B
102
{ACAD_REACTORS
330
47
102
}
330
47
100
AcDbScale
 70
     0
300
1/32" = 1'-0"
140
0.03125
141
12.0
290
     0
  0
SCALE
  5
5C
102
{ACAD_REACTORS
330
47
102
}
330
47
100
AcDbScale
 70
     0
300
1/16" = 1'-0"
140
0.0625
141
12.0
290
     0
  0
SCALE
  5
5D
102
{ACAD_REACTORS
330
47
102
}
330
47
100
AcDbScale
 70
     0
300
3/32" = 1'-0"
140
0.09375
141
12.0
290
     0
  0
SCALE
  5
5E
102
{ACAD_REACTORS
330
47
102
}
330
47
100
AcDbScale
 70
     0
300
1/8" = 1'-0"
140
0.125
141
12.0
290
     0
  0
SCALE
  5
5F
102
{ACAD_REACTORS
330
47
102
}
330
47
100
AcDbScale
 70
     0
300
3/16" = 1'-0"
140
0.1875
141
12.0
290
     0
  0
SCALE
  5
60
102
{ACAD_REACTORS
330
47
102
}
330
47
100
AcDbScale
 70
     0
300
1/4" = 1'-0"
140
0.25
141
12.0
290
     0
  0
SCALE
  5
61
102
{ACAD_REACTORS
330
47
102
}
330
47
100
AcDbScale
 70
     0
300
3/8" = 1'-0"
140
0.375
141
12.0
290
     0
  0
SCALE
  5
62
102
{ACAD_REACTORS
330
47
102
}
330
47
100
AcDbScale
 70
     0
300
1/2" = 1'-0"
140
0.5
141
12.0
290
     0
  0
SCALE
  5
63
102
{ACAD_REACTORS
330
47
102
}
330
47
100
AcDbScale
 70
     0
300
3/4" = 1'-0"
140
0.75
141
12.0
290
     0
  0
SCALE
  5
64
102
{ACAD_REACTORS
330
47
102
}
330
47
100
AcDbScale
 70
     0
300
1" = 1'-0"
140
1.0
141
12.0
290
     0
  0
SCALE
  5
65
102
{ACAD_REACTORS
330
47
102
}
330
47
100
AcDbScale
 70
     0
300
1-1/2" = 1'-0"
140
1.5
141
12.0
290
     0
  0
SCALE
  5
66
102
{ACAD_REACTORS
330
47
102
}
330
47
100
AcDbScale
 70
     0
300
3" = 1'-0"
140
3.0
141
12.0
290
     0
  0
SCALE
  5
67
102
{ACAD_REACTORS
330
47
102
}
330
47
100
AcDbScale
 70
     0
300
6" = 1'-0"
140
6.0
141
12.0
290
     0
  0
SCALE
  5
68
102
{ACAD_REACTORS
330
47
102
}
330
47
100
AcDbScale
 70
     0
300
1'-0" = 1'-0"
140
12.0
141
12.0
290
     0
  0
ENDSEC
  0
EOF
